Guitaretab - guitar tabs
Song name
# A B C D E F G H I J K L M N O P Q R S T U V W X Y Z

The Kills - I Hate The Way You Love tab

-------------------------------------------------------------------------------
		I HATE THE WAY YOU LOVE (PART I) - The Kills
-------------------------------------------------------------------------------

Tabbed by: Filip Mesko
Email: filip DOT mesko AT gmail DOT com

Duration: 03:37

Tuning: B F# B E G# C# 
(Tune to drop D and then tune everything three half-steps lower. 
This is to get a low, bassy tone.)


Start off with muted strings syncronized with Alison's "I-I-I...":

C# |---x-x-x---|
G# |---x-x-x---|
E  |---x-x-x---|
B  |---x-x-x---| 
F# |---x-x-x---|
B  |---x-x-x---|


Then immediately at "can't", start playing the main riff:

C# |-------x-x-----x-x-----x-x-x-x-x-x---|
G# |-------x-x-----x-x-----x-x-x-x-x-x---|
E  |-------x-x-----x-x-----x-x-x-x-x-x---|
B  |-----4-x-x---3-x-x---7-x-x-x-x-x-x---| *3
F# |-----4-x-x---3-x-x---7-x-x-x-x-x-x---|
B  |---0-4-x-x-0-3-x-x-0-7-x-x-x-x-x-x---|

C# |-------x-x-x-x-x-x---|
G# |-------x-x-x-x-x-x---|
E  |-------x-x-x-x-x-x---|
B  |-------x-x-x-x-x-x---|
F# |-------x-x-x-x-x-x---|
B  |---7-7-x-x-x-x-x-x---|


At 00:14:

C# |-------x-x-----x-x---------------------|
G# |-------x-x-----x-x----10-10-10-8-(x)---|
E  |-------x-x-----x-x---(9)(9)(9)(9)-9----|
B  |-----4-x-x---3-x-x---(7)---------------| *3
F# |-----4-x-x---3-x-x---(7)---------------|
B  |---0-4-x-x-0-3-x-x-0-(7)---------------|


At 00:25:

C# |-------x-x-----x-x---------------------|
G# |-------x-x-----x-x---------------------|
E  |-------x-x-----x-x---------------------|
B  |-----4-x-x---3-x-x---------------------| etc...
F# |-----4-x-x---3-x-x---------------------|
B  |---0-4-x-x-0-3-x-x-0-7-7-7-7-7-7-7-7---|


At 00:30 - chorus:

C# |-------------------------------------|
G# |---8-8-8~------------10--------------|
E  |---9-9-9~------------9---------------|
B  |-------------------------------------|
F# |-------------------------------------|
B  |---7-7-7-7-7-7-7-7-7-7-7-7-7-7-7-7---|

C# |------------------------------------|
G# |---x-10-x-10--------10--------------|
E  |---9-9--9-9---------9---------------|
B  |------------------------------------|
F# |------------------------------------|
B  |---7-7--7-7-7-7-7-7-7-7-7-7-7-7-7---|

C# |-------------------------------------|
G# |---x-10-10-x---------10--------------|
E  |---9-9--9--9---------9---------------|
B  |-------------------------------------|
F# |-------------------------------------|
B  |---7-7--7--7-7-7-7-7-7-7-7-7-7-7-7---|

C# |---------------------------|
G# |---------------------------|
E  |---------------------------|
B  |---5-5-5-5-5-5-5-5-5-5-5---|
F# |---5-5-5-5-5-5-5-5-5-5-5---|
B  |---5-5-5-5-5-5-5-5-5-5-5---|

C# |-------------------------------------|
G# |---8~----------------10--------------|
E  |---9~----------------9---------------|
B  |-------------------------------------|
F# |-------------------------------------|
B  |---7-7-7-7-7-7-7-7-7-7-7-7-7-7-7-7---|

C# |---------------------------|
G# |---------------------------|
E  |---------------------------|
B  |---5-5-5-5-5-5-5-5-5-5-5---|
F# |---5-5-5-5-5-5-5-5-5-5-5---|
B  |---5-5-5-5-5-5-5-5-5-5-5---|

C# |-------------------------------------|
G# |---8~----------------10--------------|
E  |---9~----------------9---------------|
B  |-------------------------------------|
F# |-------------------------------------|
B  |---7-7-7-7-7-7-7-7-7-7-7-7-7-7-7-7---|

C# |------------------------------------|
G# |---x-10-x-10--------10--------------|
E  |---9-9--9-9---------9---------------|
B  |------------------------------------|
F# |------------------------------------|
B  |---7-7--7-7-7-7-7-7-7-7-7-7-7-7-7---|


Back to verse at 00:57:

C# |-------x-x-----x-x---------------------|
G# |-------x-x-----x-x----10-10-10-8-(x)---|
E  |-------x-x-----x-x---(9)(9)(9)(9)-9----|
B  |-----4-x-x---3-x-x---(7)---------------| *2
F# |-----4-x-x---3-x-x---(7)---------------|
B  |---0-4-x-x-0-3-x-x-0--7--7--7--7--7----|

C# |-------x-x-----x-x--------------------------|
G# |-------x-x-----x-x----x--8--8--8--8--8--8---|
E  |-------x-x-----x-x---(9)(9)(9)(9)(9)(9)(9)--|
B  |-----4-x-x---3-x-x---(7)--------------------|
F# |-----4-x-x---3-x-x---(7)--------------------|
B  |---0-4-x-x-0-3-x-x-0--7--7--7--7--7--7--7---|

C# |-------x-x-----x-x--------------|
G# |---8---x-x-----x-x----10-8-(x)--|
E  |--(9)--x-x-----x-x---(9)(9)-9---|
B  |-----4-x-x---3-x-x---(7)--------|
F# |-----4-x-x---3-x-x---(7)--------|
B  |---0-4-x-x-0-3-x-x-0--7--7--7---|


Things calm down a little at 01:12:

C# |-------------------------------------|
G# |-------------------------------------|
E  |-------------------------------------|
B  |-------------------------------------| *4
F# |-------------------------------------|
B  |---4-4-4-4-3-3-3-3-7-7-7-7-7-7-7-7---|

C# |-------------------------------------|
G# |-------------------------------------|
E  |-------------------------------------|
B  |---------------7-7-------------7-7---|
F# |-------------------------------------|
B  |---7-7-7-7-7-7-7-7-7-7-7-7-7-7-7-7---|


Another chorus at 01:29. It is exactly the same as the first one.


Soloish part - 01:56:

C# |--------------------------------------|
G# |--(x)-3-3-----------5---5-------------|
E  |---4------4-------------4-------------|
B  |--(2)-------2-------------------------|
F# |--(2)---------------------------------|
B  |---2--2-2-2-2-2-2-2-2-2-2-2-2-2-2-2---|

C# |--------------------5-----------------|
G# |--(x)-3---3---------5--(x)------------|
E  |---4----4---------------4-------------|
B  |--(2)---------------------------------|
F# |--(2)---------------------------------|
B  |---2--2-2-2-2-2-2-2-2-2-2-2-2-2-2-2---|
[ Tab from: http://www.guitaretab.com/t/the-kills/112523.html ]
C# |--------------------5---5-------------|
G# |--(x)-3---3----------(x)-(x)----------|
E  |---4----4-------------4---4-----------|
B  |--(2)---------------------------------|
F# |--(2)---------------------------------|
B  |---2--2-2-2-2-2-2-2-2-2-2-2-2-2-2-2---|

C# |---5---5-----------5---5-------------|
G# |----(x)-(x)---------(x)-(x)----------|
E  |-----4---4-----------4---4-----------|
B  |-------------------------------------|
F# |-------------------------------------|
B  |---2-2-2-2-2-2-2-2-2-2-2-2-2-2-2-2---|


At 02:11:

C# |---------------------------|
G# |---------------------------|
E  |---------------------------|
B  |---5^5^5^5^5^5^5^5^5^5^5---|
F# |---5-5-5-5-5-5-5-5-5-5-5---|
B  |---5-5-5-5-5-5-5-5-5-5-5---|

(Gradually increase the bend!)


At 02:13:

C# |---x---|
G# |---x---|
E  |---x---|
B  |---x---|
F# |---x---|
B  |---x---|

(Strike the strings behind the bridge if your guitar allows it.)


Then, immediately after, return to:

C# |-------------------------------------|
G# |-------------------------------------|
E  |-------------------------------------|
B  |-------------------------------------| *4
F# |-------------------------------------|
B  |---4-4-4-4-3-3-3-3-7-7-7-7-7-7-7-7---|


It gets a little more intense at 02:28 as the final long chorus starts:

C# |-------------------------------------|
G# |---------------------8-8-8-8-8-8-8---|
E  |---------------------9-9-9-9-9-9-9---|
B  |-------------------------------------| *3
F# |---4-4-4-4-3-3-3-3-7-7-7-7-7-7-7-7---|
B  |---4-4-4-4-3-3-3-3-7-7-7-7-7-7-7-7---|

C# |-------------------------------------|
G# |---------------------8-8---8---------|
E  |---------------------9-9-9-9---------|
B  |-------------------------------------| *2
F# |---4-4-4-4-3-3-3-3-7-7-7-7-7-7-7-7---|
B  |---4-4-4-4-3-3-3-3-7-7-7-7-7-7-7-7---|

C# |-----8---7---------------------------|
G# |-------------------10----------------|
E  |---9---9-----------9-----------------|
B  |-------------------------------------|
F# |---7-7-7-7-7-7-7-7-7-7-7-7-7-7-7-7---|
B  |---7-7-7-7-7-7-7-7-7-7-7-7-7-7-7-7---|

C# |------------------------------------|
G# |---x-10-x-10--------10--------------|
E  |---9-9--9-9---------9---------------|
B  |------------------------------------|
F# |---7-7--7-7-7-7-7-7-7-7-7-7-7-7-7---|
B  |---7-7--7-7-7-7-7-7-7-7-7-7-7-7-7---|

C# |-------------------------------------|
G# |---x-10-10-x---------10--------------|
E  |---9-9--9--9---------9---------------|
B  |-------------------------------------|
F# |---7-7-7-7-7-7-7-7-7-7-7-7-7-7-7-7---|
B  |---7-7--7--7-7-7-7-7-7-7-7-7-7-7-7---|

C# |---------------------------|
G# |---------------------------|
E  |---------------------------|
B  |---5-5-5-5-5-5-5-5-5-5-5---|
F# |---5-5-5-5-5-5-5-5-5-5-5---|
B  |---5-5-5-5-5-5-5-5-5-5-5---|

C# |-------------------------------------|
G# |---8~----------------10--------------|
E  |---9~----------------9---------------|
B  |-------------------------------------|
F# |---7-7-7-7-7-7-7-7-7-7-7-7-7-7-7-7---|
B  |---7-7-7-7-7-7-7-7-7-7-7-7-7-7-7-7---|

C# |---------------------------|
G# |---------------------------|
E  |---------------------------|
B  |---5-5-5-5-5-5-5-5-5-5-5---|
F# |---5-5-5-5-5-5-5-5-5-5-5---|
B  |---5-5-5-5-5-5-5-5-5-5-5---|

C# |-------------------------------------|
G# |---8~----------------10--------------|
E  |---9~----------------9---------------|
B  |-------------------------------------|
F# |---7-7-7-7-7-7-7-7-7-7-7-7-7-7-7-7---|
B  |---7-7-7-7-7-7-7-7-7-7-7-7-7-7-7-7---|

C# |---------------------------|
G# |---------------------------|
E  |---------------------------|
B  |---5-5-5-5-5-5-5-5-5-5-5---|
F# |---5-5-5-5-5-5-5-5-5-5-5---|
B  |---5-5-5-5-5-5-5-5-5-5-5---|

C# |-------------------------------------|
G# |---------------------10--------------|
E  |---------------------9---------------|
B  |-------------------------------------|
F# |---7-7-7-7-7-7-7-7-7-7-7-7-7-7-7-7---|
B  |---7-7-7-7-7-7-7-7-7-7-7-7-7-7-7-7---|

C# |-------------------------------------|
G# |---8-8-8~------------10--------------|
E  |---9-9-9~------------9---------------|
B  |-------------------------------------|
F# |---7-7-7-7-7-7-7-7-7-7-7-7-7-7-7-7---|
B  |---7-7-7-7-7-7-7-7-7-7-7-7-7-7-7-7---|

C# |---------------------------------------|
G# |---x-10-x-10--------10-x-10-x----------|
E  |---9-9--9-9---------9--9-9--9----------|
B  |---------------------------------------|
F# |---7-7-7-7-7-7-7-7-7-7-7-7-7-7-7-7-7---|
B  |---7-7-7-7-7-7-7-7-7-7-7-7-7-7-7-7-7---|

C# |---------------------------------------|
G# |---x-10-x-10--------10-x-10-x----------|
E  |---9-9--9-9---------9--9-9--9----------|
B  |---------------------------------------|
F# |---7-7-7-7-7-7-7-7-7-7-7-7-7-7-7-7-7---|
B  |---7-7-7-7-7-7-7-7-7-7-7-7-7-7-7-7-7---|

C# |---10--10----------10---10-------------|
G# |---------------------------------------|
E  |-----9---9------------9---9------------|
B  |---------------------------------------|
F# |---7-7-7-7-7-7-7-7-7-7-7-7-7-7-7-7-7---|
B  |---7-7-7-7-7-7-7-7-7-7-7-7-7-7-7-7-7---|

C# |---10--10----------10---10-------------|
G# |---------------------------------------|
E  |-----9---9------------9---9------------|
B  |---------------------------------------|
F# |---7-7-7-7-7-7-7-7-7-7-7-7-7-7-7-7-7---|
B  |---7-7-7-7-7-7-7-7-7-7-7-7-7-7-7-7-7---|

C# |---------------------------|
G# |---------------------------|
E  |---------------------------|
B  |---5-5-5-5-5-5-5-5-5-5-5---|
F# |---5-5-5-5-5-5-5-5-5-5-5---|
B  |---5-5-5-5-5-5-5-5-5-5-5---|



One could skip some 9's on the E string when they are played together with notes on the G#-string.

That's basically it! Please e-mail me with improvements and/or suggestions etc...
I hope it's correct - good luck!



| ^  bend
| /  slide up
| \  slide down
| h  hammer-on
| p  pull-off
| ~  let ring
| +  harmonic
| x  Mute note
Related for I Hate The Way You Love tab
Advertisement will be closed in 10 seconds