Song name
# A B C D E F G H I J K L M N O P Q R S T U V W X Y Z

The Kills - Last Day Of Magic tab

----------------------------------------------------------------------------
			   LAST DAY OF MAGIC - The Kills
----------------------------------------------------------------------------
Tabbed by: Alex
Email:

Tuning: Drop B (B,F#,B,E,G#,C)

I've not tabbed out the rhythms too realistically, but the i think
the notes are there, so it shouldn't be too hard, with the record, 
to put it together.

Intro:

Guitar 1
|---------------------------------   ---------------------------------   -|
|---------------------------------   ---------------------------------   -|
|--------------------------------- X --------------------------------- X -|
|--------------------------------- 2 --------------------------------- 2 -|
|---------------------------------   ---------------------------------   -|
|-3-3-3-3-3-3-3-3-0-0-0-0-0-0-0-0-   -8-8-8-8-8-8-8-8-0-0-0-0-0-0-0-0-   -|

Guitar 2
|---------------   -----------------------13---------   --|
|---------------   --------15----------------15--15--   --|
|--14----14----- X ------15--15--15-14--14-----14---- X --|
|--14b15r14--14- 2 -14-15------15-----15------------- 2 --|
|---------------   ----------------------------------   --|
|---------------   ----------------------------------   --|

Verse 1

Guitar 1 (tabbed as quarter notes, but played as eighths).
|---------------------------------------------------|
|---------------------------------------------------|
|---------------------------------------------------|
|---------------------------------------------------|
|---------------------------------------------------|
|-5-5-5-5-5-5-5-5-5-5-5-5-5-5-5-5-5-1-1-1-1-1-1-1-1-|


|-------------------------------------------------|
|-------------------------------------------------|
|-------------------------------------------------|
|-------------------------------------------------|
|-------------------------------------------------|
|-12-12-12-12-12-12-12-12-12-12-12-12-12-12-12-12-|

Guitar 2
|--------          ---------------------------------------|
|--------          --/15-------15-15-15-15-15-15-15-------|
|-12-12--     X    -------15------------------------12----|
|-------- whatever ---------------------------------------|
|--------          ---------------------------------------|
|--------          ------------------------------------/\-|

   (Guitar 1 Verse Variations)
|---------------------------------------------------------|
|------------10-10-/15------15-15-15-15-15-15-15----------|
|-12-12---12------------15-----------------------15-------|
|---------------------------------------------------------|
|---------------------------------------------------------|
|---------------------------------------------------------|

   (and also)
|---------------------------------------------------------|
|-------------------/15-----------------------------------|
|-12-12---12-10-10--------15----12----10------------------|
|---------------------------------------------------------|
|---------------------------------------------------------|
|---------------------------------------------------------|

     ^I'm sure I can leave it up to you to work out^
     ^             where they're used.             ^

Chorus
|---------------------------------   ---------------------------------   -|
|---------------------------------   ---------------------------------   -|
|--------------------------------- X --------------------------------- X -|
|--------------------------------- 2 --------------------------------- 2 -|
|---------------------------------   ---------------------------------   -|
|-3-3-3-3-3-3-3-3-0-0-0-0-0-0-0-0-   -8-8-8-8-8-8-8-8-0-0-0-0-0-0-0-0-   -|

|---------------------------------   ---------------------------------   -|
|---------------------------------   ---------------------------------   -|
|--------------------------------- X --------------------------------- X -|
|-0-0-0-0-0-0-0-0-0-0-0-0-0-0-0-0- 2 -0-0-0-0-0-0-0-0-0-0-0-0-0-0-0-0- 2 -|
|-3-3-3-3-3-3-3-3-0-0-0-0-0-0-0-0-   -8-8-8-8-8-8-8-8-0-0-0-0-0-0-0-0-   -|
|-3-3-3-3-3-3-3-3-0-0-0-0-0-0-0-0-   -8-8-8-8-8-8-8-8-0-0-0-0-0-0-0-0-   -|

Verse 2 as Verse 1, with variations on lead, and two bars less of
the D at the beginning.

Break and Verse 3

Guitar 1 (tabbed as quarter notes, but played as eighths).
|---------------------------------|
|---------------------------------|
|---------------------------------|
|-5-5-5-5-5-5-5-5-1-1-1-1-1-1-1-1-|
|-5-5-5-5-5-5-5-5-1-1-1-1-1-1-1-1-|
|-5-5-5-5-5-5-5-5-1-1-1-1-1-1-1-1-|

|-------------------------------------------------|
|-------------------------------------------------|
|-------------------------------------------------|
|-12-12-12-12-12-12-12-12-12-12-12-12-12-12-12-12-|
|-12-12-12-12-12-12-12-12-12-12-12-12-12-12-12-12-|
|-12-12-12-12-12-12-12-12-12-12-12-12-12-12-12-12-|

Guitar 2 plays verse variations.

Quiet bit is just a chorus, but quiter with the 14b15 bend,
building up, eventually adding opening riff in full.

Watching live vids of this, I'm not sure of my accuracy. Don't
be too harsh on me...


| /  slide up
| \  slide down
| h  hammer-on
| p  pull-off
| ~  vibrato
| +  harmonic
| x  Mute note
============================================================================
Tap to rate this tab
 
# A B C D E F G H I J K L M N O P Q R S T U V W X Y Z