Guitaretab - guitar tabs
Song name
# A B C D E F G H I J K L M N O P Q R S T U V W X Y Z

The Kills - Superstition tab

Artist: The Kills
Song: Superstition
Album: Keep on Your Mean Side
Tunning: C# Standard with drop B
Tabbed By: INDIE NATION

 - Note the noise that he adds to
   the main riff is made by picking
   the strings behind the bridge


Intro:

C#--------------------------------------|
G#--------------------------------------|
E --------------------------------------| x4
B --0---0-3-3-5-0--x--0--3-3-3-3-0--x---|
F#--0---0-3-3-5-0--x--0--3-3-3-3-0--x---|
B --0---0-3-3-5-0--x--0--3-3-3-3-0--x---|

Verse:

C#--------------------------------------|
G#--------------------------------------|
E --------------------------------------|
B --0---0-3-3-5-0--x--0--3-3-3-3-0--x---| x4
F#--0---0-3-3-5-0--x--0--3-3-3-3-0--x---|
B --0---0-3-3-5-0--x--0--3-3-3-3-0--x---|

C#----------------------------------------|
G#----------------------------------------|
E ----------------------------------------|
B --0---0-3-3-3--0--x--0--3-3-3-3--0--x---| x4
F#--0---0-3-3-3--0--x--0--3-3-3-3--0--x---|
B --0---0-3-3-3b-0--x--0--3-3-3-3b-0--x---|

C#--------------------------------------|
G#--------------------------------------|
E --------------------------------------|
B --0---0-3-3-5-0--x--0--3-3-3-3-0--x---| x8
F#--0---0-3-3-5-0--x--0--3-3-3-3-0--x---|
B --0---0-3-3-5-0--x--0--3-3-3-3-0--x---|


C#----------------------------------------|
G#----------------------------------------|
E ----------------------------------------|
B --0---0-3-3-3--0--x--0--3-3-3-3--0--x---| x4
F#--0---0-3-3-3--0--x--0--3-3-3-3--0--x---|
B --0---0-3-3-3b-0--x--0--3-3-3-3b-0--x---|

Chorus: (screamy bit)

C#--------------------------------------------------------|
G#--7-7-7-7-7-7-7-5--7-7-7-7-7-7-7-5--7-7-7-7-7-7-7-5/12--|
E --7-7-7-7-7-7-7-5--7-7-7-7-7-7-7-5--7-7-7-7-7-7-7-5/12--|
B --7-7-7-7-7-7-7-5--7-7-7-7-7-7-7-5--7-7-7-7-7-7-7-5/12--| x4
F#--5-5-5-5-5-5-5-3--5-5-5-5-5-5-5-3--5-5-5-5-5-5-5-3/10--|
B --5-5-5-5-5-5-5-3--5-5-5-5-5-5-5-3--5-5-5-5-5-5-5-3/10--|

Break:
[ Tab from: http://www.guitaretab.com/t/the-kills/133877.html ]
C#---------------------------------------------------------|
G#---------------------------------------------------------|
E ---------------------------------------------------------|
B --0--3-0-3-3-0---0--3-0-3-3-0---0--3-0-3-3---0--3-0-3-3--| x2
F#--0--3-0-3-3-0---0--3-0-3-3-0---0--3-0-3-3---0--3-0-3-3--|
B --0--3-0-3-3-0---0--3-0-3-3-0---0--3-0-3-3---0--3-0-3-3--|

C#------------------------------------|
G#------------------------------------|
E ------------------------------------|
B --/5-5-5-5-5-5-5-5-5-5-5-5-5-5-5-5--|
F#--/5-5-5-5-5-5-5-5-5-5-5-5-5-5-5-5--|
B --/5-5-5-5-5-5-5-5-5-5-5-5-5-5-5-5--|

C#---------------------------------------------------------|
G#---------------------------------------------------------|
E ---------------------------------------------------------|
B --0--3-0-3-3-0---0--3-0-3-3-0---0--3-0-3-3---0--3-0-3-3--|
F#--0--3-0-3-3-0---0--3-0-3-3-0---0--3-0-3-3---0--3-0-3-3--|
B --0--3-0-3-3-0---0--3-0-3-3-0---0--3-0-3-3---0--3-0-3-3--|

Verse:

C#--------------------------------------|
G#--------------------------------------|
E --------------------------------------|
B --0---0-3-3-5-0--x--0--3-3-3-3-0--x---| x8
F#--0---0-3-3-5-0--x--0--3-3-3-3-0--x---|
B --0---0-3-3-5-0--x--0--3-3-3-3-0--x---|

C#----------------------------------------|
G#----------------------------------------|
E ----------------------------------------|
B --0---0-3-3-3--0--x--0--3-3-3-3--0--x---| x4
F#--0---0-3-3-3--0--x--0--3-3-3-3--0--x---|
B --0---0-3-3-3b-0--x--0--3-3-3-3b-0--x---|



Chorus: (screamy bit)

C#--------------------------------------------------------|
G#--7-7-7-7-7-7-7-5--7-7-7-7-7-7-7-5--7-7-7-7-7-7-7-5/12--|
E --7-7-7-7-7-7-7-5--7-7-7-7-7-7-7-5--7-7-7-7-7-7-7-5/12--|
B --7-7-7-7-7-7-7-5--7-7-7-7-7-7-7-5--7-7-7-7-7-7-7-5/12--| x2
F#--5-5-5-5-5-5-5-3--5-5-5-5-5-5-5-3--5-5-5-5-5-5-5-3/10--|
B --5-5-5-5-5-5-5-3--5-5-5-5-5-5-5-3--5-5-5-5-5-5-5-3/10--|

C#---------------------------------------------------------------|
G#--7-7-7-7-7-7-7-5--7-7-7-7-7-7-7-5--7-7-7-7-7-7-7--------------|
E --7-7-7-7-7-7-7-5--7-7-7-7-7-7-7-5--7-7-7-7-7-7-7--------------|
B --7-7-7-7-7-7-7-5--7-7-7-7-7-7-7-5--7-7-7-7-7-7-7--7b8r7--5----|
F#--5-5-5-5-5-5-5-3--5-5-5-5-5-5-5-3--5-5-5-5-5-5-5-----------7--|
B --5-5-5-5-5-5-5-3--5-5-5-5-5-5-5-3--5-5-5-5-5-5-5--------------|

C#--------------------------------------------------------||
G#--7-7-7-7-7-7-7-5--7-7-7-7-7-7-7-5--7-7-7-7-7-7-7-5/12--||
E --7-7-7-7-7-7-7-5--7-7-7-7-7-7-7-5--7-7-7-7-7-7-7-5/12--||
B --7-7-7-7-7-7-7-5--7-7-7-7-7-7-7-5--7-7-7-7-7-7-7-5/12--||
F#--5-5-5-5-5-5-5-3--5-5-5-5-5-5-5-3--5-5-5-5-5-5-5-3/10--||
B --5-5-5-5-5-5-5-3--5-5-5-5-5-5-5-3--5-5-5-5-5-5-5-3/10--||
Related for Superstition tab
Advertisement will be closed in 10 seconds