Guitaretab - guitar tabs
Song name
# A B C D E F G H I J K L M N O P Q R S T U V W X Y Z

The Kills - Kissy Kissy tab

Great tune, not tabbed by me, i found this online and thought it would be appreciated as 
is no tab for KK

cheers

James

The Kills - Kissy Kissy
Tabbed by Skullder


cappo on 1st fret

intro
------------------------------------------------------------------------------|
---1---1--1-----3b---1-1--1---1-----1---1--1-----3b---1-----1------1----------|
---0---2b-------0----0-2b-----0---0-----2b-----0-0----0---x-----2b---2r-2-2b--|
------------------------------------------------------------------------------|
-3---3--------3----3--------3---3-----3------3------3---3-----3---------------|
------------------------------------------------------------------------------|


------------------------------------------------------------------------------|
-1---------1---------1--------3b-1-----3b-1-----1---------1-----1-----1-------|
---2r-2-2b---2r-2-2b---2r-2-0-0--0---0-0--0---0-----0-----0---0-----0-----0---|
------------------------------------------------------0h2---------------------|
-----------------------------------3--------3-----3---------3-----3-----3-----|
------------------------------------------------------------------------------|

               verse
------------------------------------------------------------------------------|
-1-----1-------1-3b-3b-3b-1-------1-1-3b-3b-3b-1-----3b-1---1-------1-3b-3b---|
-----0-----0-2----------------0-2------------------0------0-----0-2-----------|
------------------------------------------------------------------------------|
---3-----3--------------------------------------------------------------------|
------------------------------------------------------------------------------|


------------------------------------------------------------------------------|
-3b---3b-3b-3b-------1-3b-3b-3b-1-----3b-1---1-------1---1-----1-----1-----1--|
----0------------0-2----------------0------0-----0h2-------0-----0-----0------|
------------------------------------------------------------------------------|
-------------------------------------------------------3-----3-----3-----3----|
------------------------------------------------------------------------------|

[ Tab from: http://www.guitaretab.com/t/the-kills/189430.html ]
------------------------------------------------------------------------------|
-------1-----1-----1-----1-----1---------1------------------------------------|
-0-----0-------0-----0-----0-----0---0-2-------after-this-repeat-the-verse----|
---0h2-----------------------------0-----------/w-slight-variations-----------|
-----------3-----3-----3-----3------------------------------------------------|
------------------------------------------------------------------------------|


(2:22)
------------------------------------------------------------------------------|
------------------------------------------------------------------------------|
------------------------------------------------------------------------------|
------------------------------------------------------------------------------|
-----3-5b-5b-5b-5b-5b-5b-5r-3---3---------------------------------------------|
-3-5--------------------------5-----------------------------------------------|


(2:32)
------------------------------------------------------------------------------|
------------------------------------------------------------------------------|
------------------------------------------------------------------------------|
------------------------------------------------------------------------------|
-1-3-3-1-3--------------------------------------------------------------------|
------------------------------------------------------------------------------|


(2:52)/(4:09)
--------------------------------------------------------------------------------|
--------------------------------------------------------------------------------|
--------------------------------------------------------------------------------|
--------------------------------------------------------------------------------|
-6-6-6-6-6-6-6-6-6-6-6-6-6-6-6-6-1-3-3-3-1-3-3-1-3-3-1-3-3-3--------------------|
-|------------------------------|-----------------------------------------------|
/2nd guitar without cappo plays open E5


(4:50)
------------------------------------------------------------------------------|
------------------------------------------------------------------------------|
-------------x----------------------------------------------------------------|
-------------x----------------------------------------------------------------|
-1-3-3-1-3--------------------------------------------------------------------|
------------------------------------------------------------------------------|
Related for Kissy Kissy tab
Kissy Kissy chords by The Kills