Song name
# A B C D E F G H I J K L M N O P Q R S T U V W X Y Z

The Kills - Fried My Little Brains tab

Song: Fried My Little Brains
Artist: The Kills
Album: Keep On Your Mean Side

Tabbed By: INDIE NATION

Tunning: C# standard w/ Drop B bass

Key:

h - Hammer on
p - Pull off
x - Dead note
()- Ghost note
b - Bend up
r - Ring out



Intro:


C#|----------------------------------|---------------------------------|
G#|----------------------------------|---------------------------------|
E |----------x-x----x-x----x-x-------|---------x-x----x-x----x-x-------|
B |--3br--0--x-x----x-x----x-x-------|--3b--0--x-x----x-x----x-x-------|
F#|--3br--0--x-x(0)-x-x(0)-x-x(0)(0)-|--3b--0--x-x(0)-x-x(0)-x-x(0)(0)-|
B |-(3br)----x-x-0--x-x-0--x-x-0--0--|-(3b)----x-x-0--x-x-0--x-x-0--0--|

C#|---------------------------------|---------------------------------|
G#|---------------------------------|---------------------------------|
E |---------x-x----x-x----x-x-------|---------x-x----x-x----x-x-------|
B |------0--x-x----x-x----x-x-------|------0--x-x----x-x----x-x-------|
F#|--3b--0--x-x(0)-x-x(0)-x-x(0)(0)-|--3b--0--x-x(0)-x-x(0)-x-x(0)(0)-|
B |--3b-----x-x-0--x-x-0--x-x-0--0--|--3b-----x-x-0--x-x-0--x-x-0--0--|


Verse:

C#|--------------------------------|-------------------------------|
G#|--------------------------------|-------------------------------|
E |---------x-x-x--x-x-x--x-x-x-x--|---------x-x-x--x-x-x--x-x-x-x-|
B |---3--0--x-x-x--x-x-x--x-x-x-x--|---3--0--x-x-x--x-x-x--x-x-x-x-|
F#|-0-3--0--x-x-x--x-x-x--x-x-x-x--|-0-3--0--x-x-x--x-x-x--x-x-x-x-|
B |-0-3--0--x-x-x--x-x-x--x-x-x-x--|-0-3--0--x-x-x--x-x-x--x-x-x-x-|

C#|--------------------------------|-------------------------------|
G#|--------------------------------|-------------------------------|
E |---------x-x-x--x-x-x--x-x-x-x--|---------x-x-x--x-x-x--x-x-x-x-|
B |---3--0--x-x-x--x-x-x--x-x-x-x--|---3--0--x-x-x--x-x-x--x-x-x-x-|
F#|-0-3--0--x-x-x--x-x-x--x-x-x-x--|-0-3--0--x-x-x--x-x-x--x-x-x-x-|
B |-0-3--0--x-x-x--x-x-x--x-x-x-x--|-0-3--0--x-x-x--x-x-x--x-x-x-x-|

C#|---------------------------------|---------------------------------|
G#|---------------------------------|---------------------------------|
E |---------x-x-x--x-x-x------------|---------x-x-x--x-x-x------------|
B |---3--0--x-x-x--x-x-x--------3p0-|---3--0--x-x-x--x-x-x------------|
F#|-0-3--0--x-x-x--x-x-x--0h3p0-----|-0-3--0--x-x-x--x-x-x--0-5br-5br-|
B |-0-3--0--x-x-x--x-x-x------------|-0-3--0--x-x-x--x-x-x------------|

C#|---------------------------------|----------------------------------|
G#|---------------------------------|----------------------------------|
E |---------x-x-x--x-x-x------------|---------x-x-x--x-x-x-x-x-x-x-x-x-|
B |---3--0--x-x-x--x-x-x--------3p0-|---3--0--x-x-x--x-x-x-x-x-x-x-x-x-|
F#|-0-3--0--x-x-x--x-x-x--0h3p0-----|-0-3--0--x-x-x--x-x-x-x-x-x-x-x-x-|
B |-0-3--0--x-x-x--x-x-x------------|-0-3--0--x-x-x--x-x-x-x-x-x-x-x-x-|


Chorus:

C#|-----------------------------------|---------------------------------|
G#|-----------------------------------|---------------------------------|
E |---------x-x----x-x----------------|---------x-x----x-x----x-x-------|
B |------0--x-x----x-x------------3p0-|------0--x-x----x-x----x-x-------|
F#|--3b--0--x-x(0)-x-x(0)(0)--3p0-----|--3b--0--x-x(0)-x-x(0)-x-x(0)(0)-|
B |--3b-----x-x-0--x-x-0--0--(0)------|--3b-----x-x-0--x-x-0--x-x-0--0--|

C#|-----------------------------------|----------------------------------|
G#|-----------------------------------|----------------------------------|
E |---------x-x----x-x----------------|---------x-x----x-x---------------|
B |------0--x-x----x-x------------3p0-|------0--x-x----x-x---------------|
F#|--3b--0--x-x(0)-x-x(0)(0)--3p0-----|--3b--0--x-x(0)-x-x(0)(0)-3-3-3-5-|
B |--3b-----x-x-0--x-x-0--0-----------|--3b-----x-x-0--x-x-0--0--3-3-3-5-|

C#|-----------------------------------|---------------------------------|
G#|-----------------------------------|---------------------------------|
E |---------x-x----x-x----------------|---------x-x----x-x----x-x-------|
B |------0--x-x----x-x------------3p0-|------0--x-x----x-x----x-x-------|
F#|--3b--0--x-x(0)-x-x(0)(0)--3p0-----|--3b--0--x-x(0)-x-x(0)-x-x(0)(0)-|
B |--3b-----x-x-0--x-x-0--0--(0)------|--3b-----x-x-0--x-x-0--x-x-0--0--|

C#|-----------------------------------|----------------------------------|
G#|-----------------------------------|----------------------------------|
E |---------x-x----x-x----------------|---------x-x----x-x---------------|
B |------0--x-x----x-x------------3p0-|------0--x-x----x-x---------------|
F#|--3b--0--x-x(0)-x-x(0)(0)--3p0-----|--3b--0--x-x(0)-x-x(0)(0)-3-3-3-5-|
B |--3b-----x-x-0--x-x-0--0-----------|--3b-----x-x-0--x-x-0--0--3-3-3-5-|


Verse:

C#|---------------------------------|----------------------------------|
G#|---------------------------------|----------------------------------|
E |---------x-x-x--x-x-x------------|---------x-x-x--x-x-x-------------|
B |---3--0--x-x-x--x-x-x--------3p0-|---3--0--x-x-x--x-x-x-------------|
F#|-0-3--0--x-x-x--x-x-x--0h3p0-----|-0-3--0--x-x-x--x-x-x--0h3br-3br--|
B |-0-3--0--x-x-x--x-x-x------------|-0-3-(0)-x-x-x--x-x-x-------------|

C#|-----------------------------------|--------------------------------|
G#|-----------------------------------|--------------------------------|
E |----------x-x-x--x-x-x-------------|----------x-x-x--x-x-x-x--------|
B |-------0--x-x-x--x-x-x-------------|-------0--x-x-x--x-x-x-x-(5b)---|
F#|-0-3b--0--x-x-x--x-x-x--0 5br-5br--|-0-3b--0--x-x-x--x-x-x-x--5b----|
B |-0-3b-----x-x-x--x-x-x-------------|-0-3b-(0)-x-x-x--x-x-x-x--0-----|

C#|---------------------------------|----------------------------------|
G#|---------------------------------|----------------------------------|
E |---------x-x-x--x-x-x------------|---------x-x-x--x-x-x-------------|
B |---3--0--x-x-x--x-x-x--------3p0-|---3--0--x-x-x--x-x-x-------------|
F#|-0-3--0--x-x-x--x-x-x--0h3p0-----|-0-3--0--x-x-x--x-x-x--0h3br-3br--|
B |-0-3--0--x-x-x--x-x-x------------|-0-3-(0)-x-x-x--x-x-x-------------|

C#|-----------------------------------|--------------------------------|
G#|-----------------------------------|--------------------------------|
E |----------x-x-x--x-x-x-------------|----------x-x-x--x-x-x-x--------|
B |-------0--x-x-x--x-x-x-------------|-------0--x-x-x--x-x-x-x-(5b)---|
F#|-0-3b--0--x-x-x--x-x-x--0 5br-5br--|-0-3b--0--x-x-x--x-x-x-x--5b----|
B |-0-3b-----x-x-x--x-x-x-------------|-0-3b-(0)-x-x-x--x-x-x-x--0-----|


Chorus:

C#|-----------------------------------|---------------------------------|
G#|-----------------------------------|---------------------------------|
E |---------x-x----x-x----------------|---------x-x----x-x----x-x-------|
B |------0--x-x----x-x------------3p0-|------0--x-x----x-x----x-x-------|
F#|--3b--0--x-x(0)-x-x(0)(0)--3p0-----|--3b--0--x-x(0)-x-x(0)-x-x(0)(0)-|
B |--3b-----x-x-0--x-x-0--0--(0)------|--3b-----x-x-0--x-x-0--x-x-0--0--|

C#|-----------------------------------|----------------------------------|
G#|-----------------------------------|----------------------------------|
E |---------x-x----x-x----------------|---------x-x----x-x---------------|
B |------0--x-x----x-x------------3p0-|------0--x-x----x-x---------------|
F#|--3b--0--x-x(0)-x-x(0)(0)--3p0-----|--3b--0--x-x(0)-x-x(0)(0)-3-3-3-5-|
B |--3b-----x-x-0--x-x-0--0-----------|--3b-----x-x-0--x-x-0--0--3-3-3-5-|

C#|-----------------------------------|---------------------------------|
G#|-----------------------------------|---------------------------------|
E |---------x-x----x-x----------------|---------x-x----x-x----x-x-------|
B |------0--x-x----x-x------------3p0-|------0--x-x----x-x----x-x-------|
F#|--3b--0--x-x(0)-x-x(0)(0)--3p0-----|--3b--0--x-x(0)-x-x(0)-x-x(0)(0)-|
B |--3b-----x-x-0--x-x-0--0--(0)------|--3b-----x-x-0--x-x-0--x-x-0--0--|

C#|-----------------------------------|----------------------------------|
G#|-----------------------------------|----------------------------------|
E |---------x-x----x-x----------------|---------x-x----x-x---------------|
B |------0--x-x----x-x------------3p0-|------0--x-x----x-x---------------|
F#|--3b--0--x-x(0)-x-x(0)(0)--3p0-----|--3b--0--x-x(0)-x-x(0)(0)-3-3-3-5-|
B |--3b-----x-x-0--x-x-0--0-----------|--3b-----x-x-0--x-x-0--0--3-3-3-5-|


Break:

C#|-------------------------------|------------------------------|
G#|-------------------------------|------------------------------|
E |--------x-x-x--x-x-x--x-x-x-x--|--------x-x-x--x-x-x--x-x-x-x-|
B |---3-0--x-x-x--x-x-x--x-x-x-x--|---3-0--x-x-x--x-x-x--x-x-x-x-|
F#|-0-3-0--x-x-x--x-x-x--x-x-x-x--|-0-3-0--x-x-x--x-x-x--x-x-x-x-|
B |-0-3-0--x-x-x--x-x-x--x-x-x-x--|-0-3-0--x-x-x--x-x-x--x-x-x-x-|

C#|-------------------------------|------------------------------|
G#|-------------------------------|------------------------------|
E |--------x-x-x--x-x-x--x-x-x-x--|--------x-x-x--x-x-x--x-x-x-x-|
B |---3-0--x-x-x--x-x-x--x-x-x-x--|---3-0--x-x-x--x-x-x--x-x-x-x-|
F#|-0-3-0--x-x-x--x-x-x--x-x-x-x--|-0-3-0--x-x-x--x-x-x--x-x-x-x-|
B |-0-3-0--x-x-x--x-x-x--x-x-x-x--|-0-3-0--x-x-x--x-x-x--x-x-x-x-|


Verse:

C#|---------------------------------|---------------------------------|
G#|---------------------------------|---------------------------------|
E |---------x-x----x-x----x-x-------|---------x-x----x-x----x-x-------|
B |------0--x-x----x-x----x-x-------|------0--x-x----x-x----x-x-------|
F#|--3b--0--x-x(0)-x-x(0)-x-x(0)(0)-|--3b--0--x-x(0)-x-x(0)-x-x(0)(0)-|
B |--3b-----x-x-0--x-x-0--x-x-0--0--|--3b-----x-x-0--x-x-0--x-x-0--0--|

C#|---------------------------------|---------------------------------|
G#|---------------------------------|---------------------------------|
E |---------x-x----x-x----x-x-------|---------x-x----x-x----x-x-------|
B |------0--x-x----x-x----x-x-------|------0--x-x----x-x----x-x-------|
F#|--3b--0--x-x(0)-x-x(0)-x-x(0)(0)-|--3b--0--x-x(0)-x-x(0)-x-x(0)(0)-|
B |--3b-----x-x-0--x-x-0--x-x-0--0--|--3b-----x-x-0--x-x-0--x-x-0--0--|

C#|---------------------------------|---------------------------------|
G#|---------------------------------|---------------------------------|
E |---------x-x----x-x----x-x-------|---------x-x----x-x----x-x-------|
B |------0--x-x----x-x----x-x-------|------0--x-x----x-x----x-x-------|
F#|--3b--0--x-x(0)-x-x(0)-x-x(0)(0)-|--3b--0--x-x(0)-x-x(0)-x-x(0)(0)-|
B |--3b-----x-x-0--x-x-0--x-x-0--0--|--3b-----x-x-0--x-x-0--x-x-0--0--|

C#|---------------------------------|--------------------------------|
G#|---------------------------------|--------------------------------|
E |---------x-x----x-x----x-x-------|---------x-x----x-x-------------|
B |------0--x-x----x-x----x-x-------|------0--x-x----x-x-------5b----|
F#|--3b--0--x-x(0)-x-x(0)-x-x(0)(0)-|--3b--0--x-x(0)-x-x(0)(0)-5b----|
B |--3b-----x-x-0--x-x-0--x-x-0--0--|--3b-----x-x-0--x-x-0--0--0-----|


Chorus:

C#|-----------------------------------|---------------------------------|
G#|-----------------------------------|---------------------------------|
E |---------x-x----x-x----------------|---------x-x----x-x----x-x-------|
B |------0--x-x----x-x------------3p0-|------0--x-x----x-x----x-x-------|
F#|--3b--0--x-x(0)-x-x(0)(0)--3p0-----|--3b--0--x-x(0)-x-x(0)-x-x(0)(0)-|
B |--3b-----x-x-0--x-x-0--0--(0)------|--3b-----x-x-0--x-x-0--x-x-0--0--|

C#|-----------------------------------|----------------------------------|
G#|-----------------------------------|----------------------------------|
E |---------x-x----x-x----------------|---------x-x----x-x---------------|
B |------0--x-x----x-x------------3p0-|------0--x-x----x-x---------------|
F#|--3b--0--x-x(0)-x-x(0)(0)--3p0-----|--3b--0--x-x(0)-x-x(0)(0)-3-3-3-5-|
B |--3b-----x-x-0--x-x-0--0-----------|--3b-----x-x-0--x-x-0--0--3-3-3-5-|

C#|-----------------------------------|---------------------------------|
G#|-----------------------------------|---------------------------------|
E |---------x-x----x-x----------------|---------x-x----x-x----x-x-------|
B |------0--x-x----x-x------------3p0-|------0--x-x----x-x----x-x-------|
F#|--3b--0--x-x(0)-x-x(0)(0)--3p0-----|--3b--0--x-x(0)-x-x(0)-x-x(0)(0)-|
B |--3b-----x-x-0--x-x-0--0--(0)------|--3b-----x-x-0--x-x-0--x-x-0--0--|

C#|-----------------------------------|----------------------------------|
G#|-----------------------------------|----------------------------------|
E |---------x-x----x-x----------------|---------x-x----x-x---------------|
B |------0--x-x----x-x------------3p0-|------0--x-x----x-x---------------|
F#|--3b--0--x-x(0)-x-x(0)(0)--3p0-----|--3b--0--x-x(0)-x-x(0)(0)-3-3-3-5-|
B |--3b-----x-x-0--x-x-0--0-----------|--3b-----x-x-0--x-x-0--0--3-3-3-5-|

C#|-------------|
G#|-------------|
E |-------------|
B |-------------|
F#|--0--3br--0--|
B |--0--3br--0--|

Tap to rate this tab
# A B C D E F G H I J K L M N O P Q R S T U V W X Y Z