Song name
# A B C D E F G H I J K L M N O P Q R S T U V W X Y Z

The Kills - Kissy Kissy tab

C#---0---0---2b--2b---0---0----0------------------0----2b---2b----0--------|
G#---------------------------------2b--2b---2b------------------1----------|
E--------------------------------------------------------------------------|
B--2---2----2--2----2---2----2---2---2----2-----2----2----2----2-----------|
F#-------------------------------------------------------------------------|
B--------------------------------------------------------------------------|

----------------------------------------------------------------------------|
----------------------------------------------------------------------------|
----------------------------------------------------------------------------|
---------2---4b-4b-4b-4b-4b-4b-4p2------2-----------------------------------|
--2---4----------------------------4----------------------------------------|
----------------------------------------------------------------------------|

-----------x-----------------------------------------------------------------|
-----------x-----------------------------------------------------------------|
-----------x-----------------------------------------------------------------|
0-2-2-0-2--a few times then-2-2-5-5-5-5-5-5-5-5-5-5-5-5-5-5---0-2-2-0-2-2-0--|r
0-2-2-0-2-------------------2-2-5-5-5-5-5-5-5-5-5-5-5-5-5-5---0-2-2-0-2-2-0--|r
0-2-2-0-2-------------------2-2-5-5-5-5-5-5-5-5-5-5-5-5-5-5---0-2-2-0-2-2-0--|r


then back to the main riff. The outro is just a variation of the third part.. Itís all
fairly loose, so that tab is just a guide, but itís all the parts you need. Probably a
idea to copy and paste into word and increase the font size too.. Courier New size 8 is 
Try that.
Originally posted on my blog. www.johnincharge.blogspot.com
Tap to rate this tab
# A B C D E F G H I J K L M N O P Q R S T U V W X Y Z