Song name
# A B C D E F G H I J K L M N O P Q R S T U V W X Y Z

The Kills - Superpowerless tab

The tuning is standard except for the E string. I'm not sure what the tuning is (might 
be drop C) but I listened to the beginning of the song when Jamie plays the first note 
around 0:05 and I tuned the E string to that. But other than that, enjoy:)

Intro

e|------------------------------------|
B|------------------------------------|
G|------------------------------------|
D|------------------------------------|
A|-----------7-7-7-7-7-5--------------|
E|-0-4~-0-4~--------------4~----------| play different variations of this 2
                                        or 3 times

He sometimes adds in this:

e|---5\-------------------------------|
B|---5\-------------------------------|
G|------------------------------------|
D|------------------------------------|
A|------------------------------------|
E|------------------------------------|

Palm Mute this:

e|------------------------------------|
B|------------------------------------|
G|------------------------------------|
D|------3-3-----3-------7-7-----7-----|
A|------x-x-----x-------x-x-----x-----|
E|--4-4-4-4-4-4-4-4---8-8-8-8-8-8-8---|

Continue playing that^ but add in these fills:

"Half the time we just sit around"

e|------------------------------------|
B|------------------------------------|
G|---9--------------------------------|
D|-----10-----------------------------|
A|---------12---7---------------------|
E|------------------------------------|

"Talking shit over sour milk"

e|------------------------------------|
B|------------------------------------|
G|------------------------------------|
D|--10-12-10--------------------------|
A|-----------12-----------------------|
E|------------------------------------|

"Waiting for the wave to come down"

e|------------------------------------|
B|--10--------------------------------|
G|-----9------------------------------|
D|-------10---------------------------|
A|------------------------------------|
E|------------------------------------|


Chorus
(no palm mute)
e|----------------------------------------------------------------|
B|-----------------------------------------------------10---------|
G|--------------------------------------5-5-----5---------10------|
D|-----3-3----3---------7-7---7-----------------------------12----|
A|----------------------------------3-3-----3-3---3------------12-|
E|-4-4----4-4---4---8-8---8-8---8---------------------------------|

e|----------------------------------------------------------------|
B|----------------------------------------------------------------|
G|----------------------------------------------------------------|
D|----7-7---7------------10-10-------10----------3-3-----3--------|
A|----------------------------------------------------------------|
E|-8-8---8-8---8---11-11-------11-11----11---4-4----4-4---4-------|


e|---55555555\------------------------|
B|---55555555\------------------------|
G|------------------------------------|
D|------------------------------------|
A|------------------------------------|
E|------------------------------------|


Another fill:
"When your last little light is out"

e|------------------------------------|
B|------------------------------------|
G|----5-7-5---------------------------|
D|--7-------7-------------------------|
A|------------------------------------|
E|------------------------------------|


The Kills rock!!!! Can't wait for their new CD out April 5th:)
Tap to rate this tab
 
# A B C D E F G H I J K L M N O P Q R S T U V W X Y Z