The Kills - Superpowerless tab

The Kills - Superpowerless

Tabbed By Richard
----------------------------------------------------------------------------


c :------------------------------|-------------------|
g :------------------------------|-x(5)(5)55---------|
d#:------------------------------|-------------------|
A#:------------------------------|-------------------|  X3
F :------------------------------|-------------------|
B :-2/6-----------------2/6------|--------------8/6--|

c :-x-------------------------------------------------------8--|
g :-x--4----------------------------------------------------8--|
d#:-x--5----xx---x------x-x------x---------------x-x--------9--|
A#:-x--6----xx---x------x-x------x---xx---x------x-x-------10--|
F :-x--6----xx---x------x-x------x---66---6------x-x-----------|
B :-------6666-666-10101010-101010-66xx-66x-10101010-1010------|
   ..............PM.....................PM...............

c :---------------------------------------------------|
g :---------------------------------------------------|
d#:---xx---x------x-x------x---xx---x-----------------|
A#:---xx---x------x-x------x---xx---x------x----xx10--|
F :---xx---x------x-x------x---xx---x------x----xx10--|
B :-6666-666-10101010-101010-66xx-66x--6/10x1010xx10--|
   ........PM.................PM.....

c :--------------------------------------------------------------------|
g :------------------------------------8-------------------------------|
d#:---xx---x------x-x------x---xx---x----8-5-------xx---x------x-x-----|
A#:---xx---x------x-x------x---xx---x--------6-6---xx---x------x-x-----|
F :---xx---x------x-x------x---xx---x----------6---xx---x------x-x-----|
B :-6666-666-10101010-101010-66xx-66x----------6-6666-666-10101010-10--|
   ........PM.................PM.....            .........PM.........

                                  (Chorus)
c :------------------------8-----|---------------------------------------|
g :--------------------------8---|---------------------------------------|
d#:-9/11/9/6----xx---x---------8-|---------------------------------------|
A#:-------------xx---x-----------|---66---66-----1010-----1010-----1313--|
F :-------------xx---x-----------|-66---66---1010-----1010-----1313------|
B :-----------6666-666-10--------|-66---66---1010-----1010-----1313------|
              ....PM.....

c :-----------------------------------------------------------------|
g :-----------13----13----------------------------------------------|
d#:--------------12----12-------------------------------------------|
A#:-----1313--------------13-------1010-----1010-----1313-----1313--|
F :-1313-----------------------1010-----1010-----1313-----1313------|
B :-1313-----1313131313131313--1010-----1010-----1313-----1313------|
                 
c :------------8888888--|
g :------------8888888--|
d#:------------8888888--|
A#:---66---66--8888888--|
F :-66---66----6666666--|
B :-66---66-------------|

c:----88/------------------88/------------------------|--------------------|
g:----88/---44---44--------88/---44-------------------|--------------------|
d#----88/---55-xx55--------88/---55-xx----------------|----5------xx-------|
A#----88/---66-xx55-x------88/---66-xx------3-------6-|-xx-6------xx---10--|
F:-66-66/---66-xx33-x------66/---66-xx-6p3-6-6------6-|-xx-6------xx----x--|
B:-66----------xx---x10/6-----------xx---------10/6-6-|-xx----1010xx-1010--|
  .PM.

                             |     (Riff 1)     |
c :--------------------------|------------------|-------------------------|
g :--------------------------|------------------|---------------13131313--|
d#:---xx---x------x-x------x-|---xx---x---------|---xx---x------12121212--|
A#:---xx---x------x-x------x-|---xx---x---------|---xx---x------13131313--|
F :---xx---x------x-x------x-|---xx---x---------|---xx---x-------x-x-x-x--|
B :-6666-666-10101010-101010-|-6666-666-10/6/8/3|-6666-666-6/10-13131313--|
   ........PM.................PM.......          ......PM......

                         c :-------------------|
                         g :-------------------|
                         d#:----------9/11/9/6-|
   - (Riff 1) X1 then... A#:---66---6----------| 
                         F :---xx---x----------|
                         B :-6666-666----------| 
                            ....Pm...

                         c :----------8888888--|
                         g :----------8888888--|
                         d#:----------8888888--|
   - (Riff 1) X1 then... A#:---66--6--8888888--|
                         F :---xx--x--6666666--|
                         B :-6666-66-----------|
                            ...PM...

  
    - (Chorus) X2


c :-----------------xx-------xx----------xxxxxx-----xx--x--|
g :-----------------xx-------xx---------------------xx--x--|
d#:-----------------xx-------xx---------------------xx--x--|
A#:-3/-1------------xx-------xx---------------------xx-xx--|
F :-3/-1-----------------------------------------------x---|
B :-3/-1---------1---------1--------1------------------x---|
                                          ^ Scratch/tap down
                                            the muted string
                                            with your pick
                                            from the 17th fret...

c :------------------------------------------------------------------------|
g :------------------------------------------------------------------------|
d#:---xx---x------x-x------x-----xx-----x------x-x------x------x-x------x--|
A#:---xx---x------x-x------x-----xx-----x------x-x------x------x-x------x--|
F :---xx---x------x-x------x-----xx-----x------x-x------x------x-x------x--|
B :-6666-666-10101010-101010-1313xx-1313x-10101010-101010-13131313-131313--|
   ........PM.................PM................PM...............PM........

c :---------------------------xx----|
g :---------------------------xx-4--|
d#:---xx---x------x-x------x--xx-5--|     
A#:---xx---x------x-x------x--xx-6--|   Then the chorus X2
F :---xx---x------x-x------x-----6--|
B :-6666-666-10101010-101010--------|
   ....PM...........PM......

                         
   Lyrics:

Take a drink of my red wine
  I've got enough to go around,
Take a drink of mine
  I've got enough to go around.

'Til you're drunk 
'til you're high 
'til you're fake, 
'til you're crushed.

Come into my shipwreck
  Half the time we just sit around,
Talkin' shit over sour milk
  Waitin' for the rain to come down.

'Til you're drunk
'til you're high 
'til you're fake 
'til you're crushed 
'til you're red 
'til you're superpowerless.

Take the weight off my mind
  I got enough to slow you down,
Take a cut of mine-oh-mine
  I've got enough to go around.
Leave me when you're giving in
  when you're last little lie is out,
I'll show you just how dark it gets
  When the sun really does go down.

'Til you're drunk 
'til you're high 
'til you're fake 
'til you're crushed 
'til you're red 
'til you're superpowerless.

Everythiiiing is okaaayy
If everythiiiing stays the saaaame.

'Til you're drunk 
'til you're high 
'til you're fake 
'til you're crushed 
'til you're red 
'til you're superpowerless.
Tap to rate this tab
 
# A B C D E F G H I J K L M N O P Q R S T U V W X Y Z