The Kills - Night Train tab

The Kills - Night Train

Tabbed By Richard
----------------------------------------------------------------------------

c :-1~------------1~------------1~------------1~-----|
g :-1~------------1~------------1~------------1~-----|
d#:-2~------------2~------------2~------------2~-----|
A#:-3~------------3~------------3~------------3~-----|
F :-3~------------3~------------3~------------3~-----|
B :--------------------------------------------------|

   (Riff 1)
c :-1--1--11-4--44-4-664--|
g :-1--1--11-4--44-4-664--|
d#:-2--2--22-5--55-5-775--|
A#:-3--3--33-6--66-6-886--|
F :-3--3--33-6--66-6-886--|
B :-----------------------|

   (Riff 2)
c :-----------------------------------------------------------------|
g :-----------------------------------------------------------------|
d#:-----------------------------------------------------------------|
A#:-----------------------------------------------------------------|
F :-----------------------------------------------------------------|
B :-3-333-3-333-3333/-6-666-6-666-6666/-8-888-8-888-8888/-10-101010-|
   ..............PM.................PM...............PM.............

c :------------------------|
g :------------------------|
d#:------------------------|
A#:-----------10-10-10-10--|  X2
F :-----------10-10-10-10--|
B :-8/-101010-10-10-10-10--|
   ....PM....

   (Riff 3)
c :-------------------------------------------------|
g :-------------------------------------------------|
d#:-------------------------------------------------|
A#:---3---3---6---6-66---8---888------10----101010--|  X2 (with Riff 2
F :-------------------------------------------------|  played 'underneath')
B :-3---3---6---6------8---8-----1010----10---------| 
   ...............PM.................PM.............
 
   (Riff 4)
c :-----------------------------------------------------------|
g :-----------------------------------------------------------|
d#:-----------------------------------------------------------|    (with
A#:---3---1-33---6---66---6---8---8---6-8-8/10----10----8-10--|  X2 Riff 2
F :-----------------------------------------------------------|     played  
B :-3---3------6---6----6---8---8---8----------10----10-------|'underneath')


   - (Riff 1) X4 (with Riff 2 played 'underneath')

   - (Riff 2) X2

   - (Riff 3) X2 (with Riff 2 played 'underneath')

   - (Riff 4) X4 (with Riff 2 played 'underneath')


   (Solo)
c :-6p4-6p4/1--1-11-111-4p1-4p1-4p1-4p1-4/1--1-11-111-1/6-4-6p4-6p4-6p4--|
g :----------------------------------------------------------------------|
d#:----------------------------------------------------------------------|
A#:----------------------------------------------------------------------|
F :----------------------------------------------------------------------|
B :----------------------------------------------------------------------|
   
c :-6/1--1-11-111--4p1-4p1-4p1-4/1--1-11-111--1/6p4-6p4-6/4p1-1--|
g :--------------------------------------------------------------|
d#:--------------------------------------------------------------|
A#:--------------------------------------------------------------|
F :--------------------------------------------------------------|
B :--------------------------------------------------------------|

   Lyrics:

Sleep tight on the night train, no pain
  I don't remember
Won't a couple of years do some good for you?
  No your eyes got bigger.

  All my lovers take the train
  All my lovers, all my lovers.
  All my lovers take the train
  All my lovers, all my lovers

Sleep tight on the night train, no pain
  I don't remember
Won't a couple of years do some good for you?
  No your eyes got bigger

  All my lovers take the train
  All my lovers, all my lovers
  All my lovers take the train
  All my lovers, all my lovers

  Yeah all my lovers take the train
  All my lovers, all my lovers
  All my lovers take the train
  All my lovers, all my lovers 
Tap to rate this tab
 
# A B C D E F G H I J K L M N O P Q R S T U V W X Y Z