The Kills - Last Day Of Magic tab

Artist:The Kills
Song: Last Day of Magic
Album: Midnight Boom

Tuning - Live  - BF#BEG#C# (low to high)
       - Album - CGCFAD    (low to high)

Tabbed by: Indie Nation

Key
b  - bend
r  - ring
LR - let ring
() - ghost note

Intro:

|-5---5---5-5-5---|-5---5---5-5-5-|-5---5---5-5-5---|-5---5---5-5-5-|
|-5b6-6---6-6-6r5-|-5---5---5-5-5-|-5b6-6---6-6-6r5-|-5---5---5-5-5-|
|-----------------|---------------|-----------------|---------------|
|-----------------|---------------|-----------------|---------------|
|-----------------|---------------|-----------------|---------------|
|-3-3-3-3-3-3-3-3-|-0-0-0-0-0-0-0-|-3-3-3-3-3-3-3-3-|-0-0-0-0-0-0-0-|

|-8---8---8-8-8---|-8---8---8-8-8-|-8---8---8-8-8---|-8---8---8-8-8-|
|-8b9-9---9-9-9r8-|-8---8---8-8-8-|-8b9-9---9-9-9r8-|-8---8---8-8-8-|
|-----------------|---------------|-----------------|---------------|
|-----------------|---------------|-----------------|---------------|
|-----------------|---------------|-----------------|---------------|
|-8-8-8-8-8-8-8-8-|-0-0-0-0-0-0-0-|-8-8-8-8-8-8-8-8-|-0-0-0-0-0-0-0-|



Verse:

|-----3---3-3---3-|---3---3-3---3---|-3-3-3---3-3---3-|---3---3-3---5---|
|-----------------|-----------------|-----------------|-----------------|
|-----------------|-----------------|-----------------|-----------------|
|-----------------|-----------------|-----------------|-----------------|
|-----------------|-----------------|-----------------|-----------------|
|-5-5-5-5-5-5-5-5-|-5-5-5-5-5-5-5-5-|-5-5-5-5-5-5-5-5-|-5-5-5-5-5-5-5-5-|

LR------------------------------------------------------------------------------|
|-10--------10-----|-----------------|-10-10-10----10-10-------|-----------------|
|---------------11-|-----------------|-------------------8-----|-----------------|
|------------------|-----------------|------------------(0)----|-----------------|
|------------------|-----------------|-------------------------|-----------------|
|------------------|-----------------|-------------------------|-----------------|
|-8-8-8-8-8-8-8-8--|-8-8-8-8-8-8-8-8-|-8--8--8--8--8--8--8--8--|-8-8-8-8-8-8-8-8-|

|-----3---3-3---3-|---3---3-3---3---|-3-3-3---3-3---3-|---3---3-3---5---|
|-----------------|-----------------|-----------------|-----------------|
|-----------------|-----------------|-----------------|-----------------|
|-----------------|-----------------|-----------------|-----------------|
|-----------------|-----------------|-----------------|-----------------|
|-5-5-5-5-5-5-5-5-|-5-5-5-5-5-5-5-5-|-5-5-5-5-5-5-5-5-|-5-5-5-5-5-5-5-5-|

 LR---------------------------------------------------------------------|
|-10--------10-----|-----------------|-----------------|-----------------|
|---------------11-|---------------8-|-----------------|-----------------|
|------------------|-----------------|-------------10--|-----8-----------|
|------------------|-----------------|-----------------|-----------------|
|------------------|-----------------|-----------------|-----------------|
|-8-8-8-8-8-8-8-8--|-8-8-8-8-8-8-8-8-|-8-8-8-8-8-8-8-8-|-8-8-8-8-8-8-8-8-|


Chorus:

|-----------------|-----------------|-----------------|-----------------|
|-----------------|-----------------|-----------------|-----------------|
|-----------------|-----------------|-----------------|-----------------|
|-3-3-3-3-3-3-3-3-|-0-0-0-0-0-0-0-0-|-3-3-3-3-3-3-3-3-|-0-0-0-0-0-0-0-0-|
|-3-3-3-3-3-3-3-3-|-0-0-0-0-0-0-0-0-|-3-3-3-3-3-3-3-3-|-0-0-0-0-0-0-0-0-|
|-3-3-3-3-3-3-3-3-|-0-0-0-0-0-0-0-0-|-3-3-3-3-3-3-3-3-|-0-0-0-0-0-0-0-0-|

|-----------------|-----------------|-----------------|-----------------|
|-----------------|-----------------|-----------------|-----------------|
|-----------------|-----------------|-----------------|-----------------|
|-8-8-8-8-8-8-8-8-|-0-0-0-0-0-0-0-0-|-8-8-8-8-8-8-8-8-|-0-0-0-0-0-0-0-0-|
|-8-8-8-8-8-8-8-8-|-0-0-0-0-0-0-0-0-|-8-8-8-8-8-8-8-8-|-0-0-0-0-0-0-0-0-|
|-8-8-8-8-8-8-8-8-|-0-0-0-0-0-0-0-0-|-8-8-8-8-8-8-8-8-|-0-0-0-0-0-0-0-0-|

|-----------------|-----------------|-----------------|-----------------|
|-----------------|-----------------|-----------------|-----------------|
|-----------------|-----------------|-----------------|-----------------|
|-3-3-3-3-3-3-3-3-|-0-0-0-0-0-0-0-0-|-3-3-3-3-3-3-3-3-|-0-0-0-0-0-0-0-0-|
|-3-3-3-3-3-3-3-3-|-0-0-0-0-0-0-0-0-|-3-3-3-3-3-3-3-3-|-0-0-0-0-0-0-0-0-|
|-3-3-3-3-3-3-3-3-|-0-0-0-0-0-0-0-0-|-3-3-3-3-3-3-3-3-|-0-0-0-0-0-0-0-0-|

|-----------------|-----------------|-----------------|-----------------|
|-----------------|-----------------|-----------------|-----------------|
|-----------------|-----------------|-----------------|-----------------|
|-8-8-8-8-8-8-8-8-|-0-0-0-0-0-0-0-0-|-8-8-8-8-8-8-8-8-|-0-0-0-0-0-0-0-0-|
|-8-8-8-8-8-8-8-8-|-0-0-0-0-0-0-0-0-|-8-8-8-8-8-8-8-8-|-0-0-0-0-0-0-0-0-|
|-8-8-8-8-8-8-8-8-|-0-0-0-0-0-0-0-0-|-8-8-8-8-8-8-8-8-|-0-0-0-0-0-0-0-0-|


Verse:

|-----3---3-3---3-|---3---3-3---3---|-3-3-3---3-3---3-|---3---3-3---5---|
|-----------------|-----------------|-----------------|-----------------|
|-----------------|-----------------|-----------------|-----------------|
|-----------------|-----------------|-----------------|-----------------|
|-----------------|-----------------|-----------------|-----------------|
|-5-5-5-5-5-5-5-5-|-5-5-5-5-5-5-5-5-|-5-5-5-5-5-5-5-5-|-5-5-5-5-5-5-5-5-|

 LR-----------------------------------------------------------------------------|
|-10--------10-----|-----------------|-10-10-10----10-10-------|-----------------|
|---------------11-|-----------------|-------------------8-----|-----------------|
|------------------|-----------------|------------------(0)----|-----------------|
|------------------|-----------------|-------------------------|-----------------|
|------------------|-----------------|-------------------------|-----------------|
|-8-8-8-8-8-8-8-8--|-8-8-8-8-8-8-8-8-|-8--8--8--8--8--8--8--8--|-8-8-8-8-8-8-8-8-|

|-----3---3-3---3-|---3---3-3---3---|-3-3-3---3-3---3-|---3---3-3---5---|
|-----------------|-----------------|-----------------|-----------------|
|-----------------|-----------------|-----------------|-----------------|
|-----------------|-----------------|-----------------|-----------------|
|-----------------|-----------------|-----------------|-----------------|
|-5-5-5-5-5-5-5-5-|-5-5-5-5-5-5-5-5-|-5-5-5-5-5-5-5-5-|-5-5-5-5-5-5-5-5-|

 LR---------------------------------------------------------------------|
|-10--------10-----|-----------------|-----------------|-----------------|
|---------------11-|---------------8-|-----------------|-----------------|
|------------------|-----------------|-------------10--|-----8-----------|
|------------------|-----------------|-----------------|-----------------|
|------------------|-----------------|-----------------|-----------------|
|-8-8-8-8-8-8-8-8--|-8-8-8-8-8-8-8-8-|-8-8-8-8-8-8-8-8-|-8-8-8-8-8-8-8-8-|


Chorus:

|-----------------|-----------------|-----------------|-----------------|
|-----------------|-----------------|-----------------|-----------------|
|-----------------|-----------------|-----------------|-----------------|
|-3-3-3-3-3-3-3-3-|-0-0-0-0-0-0-0-0-|-3-3-3-3-3-3-3-3-|-0-0-0-0-0-0-0-0-|
|-3-3-3-3-3-3-3-3-|-0-0-0-0-0-0-0-0-|-3-3-3-3-3-3-3-3-|-0-0-0-0-0-0-0-0-|
|-3-3-3-3-3-3-3-3-|-0-0-0-0-0-0-0-0-|-3-3-3-3-3-3-3-3-|-0-0-0-0-0-0-0-0-|

|-----------------|-----------------|-----------------|-----------------|
|-----------------|-----------------|-----------------|-----------------|
|-----------------|-----------------|-----------------|-----------------|
|-8-8-8-8-8-8-8-8-|-0-0-0-0-0-0-0-0-|-8-8-8-8-8-8-8-8-|-0-0-0-0-0-0-0-0-|
|-8-8-8-8-8-8-8-8-|-0-0-0-0-0-0-0-0-|-8-8-8-8-8-8-8-8-|-0-0-0-0-0-0-0-0-|
|-8-8-8-8-8-8-8-8-|-0-0-0-0-0-0-0-0-|-8-8-8-8-8-8-8-8-|-0-0-0-0-0-0-0-0-|

|-----------------|-----------------|-----------------|-----------------|
|-----------------|-----------------|-----------------|-----------------|
|-----------------|-----------------|-----------------|-----------------|
|-3-3-3-3-3-3-3-3-|-0-0-0-0-0-0-0-0-|-3-3-3-3-3-3-3-3-|-0-0-0-0-0-0-0-0-|
|-3-3-3-3-3-3-3-3-|-0-0-0-0-0-0-0-0-|-3-3-3-3-3-3-3-3-|-0-0-0-0-0-0-0-0-|
|-3-3-3-3-3-3-3-3-|-0-0-0-0-0-0-0-0-|-3-3-3-3-3-3-3-3-|-0-0-0-0-0-0-0-0-|

|-----------------|-----------------|-----------------|-----------------|
|-----------------|-----------------|-----------------|-----------------|
|-----------------|-----------------|-----------------|-----------------|
|-8-8-8-8-8-8-8-8-|-0-0-0-0-0-0-0-0-|-8-8-8-8-8-8-8-8-|-0-0-0-0-0-0-0-0-|
|-8-8-8-8-8-8-8-8-|-0-0-0-0-0-0-0-0-|-8-8-8-8-8-8-8-8-|-0-0-0-0-0-0-0-0-|
|-8-8-8-8-8-8-8-8-|-0-0-0-0-0-0-0-0-|-8-8-8-8-8-8-8-8-|-0-0-0-0-0-0-0-0-|


Break:

|-------15----15-15----15-|----15----15-15----15---|
|-------15----15-15----15-|----15----15-15----15---|
|-------------------------|------------------------|
|-------------------------|------------------------|
|-------------------------|------------------------|
|-0--0--0--0--0--0--0--0--|-0--0--0--0--0--0--0--0-|

|-15-15-15----15-15----15-|----15----15-15---17-17-|
|-15-15-15----15-15----15-|----15----15-15---17-17-|
|-------------------------|------------------------|
|-------------------------|------------------------|
|-------------------------|------------------------|
|-0--0--0--0--0--0--0--0--|-0--0--0--0--0--0--0--0-|

LR------------------------------------------------------------------------------|
|-10--------10-----|-----------------|-10-10-10----10-10-------|-----------------|
|---------------11-|-----------------|-------------------8-----|-----------------|
|------------------|-----------------|------------------(0)----|-----------------|
|------------------|-----------------|-------------------------|-----------------|
|------------------|-----------------|-------------------------|-----------------|
|-8-8-8-8-8-8-8-8--|-8-8-8-8-8-8-8-8-|-8--8--8--8--8--8--8--8--|-8-8-8-8-8-8-8-8-|

|-------15----15-15----15-|----15----15-15----15---|
|-------15----15-15----15-|----15----15-15----15---|
|-------------------------|------------------------|
|-------------------------|------------------------|
|-------------------------|------------------------|
|-0--0--0--0--0--0--0--0--|-0--0--0--0--0--0--0--0-|

|-15-15-15----15-15----15-|----15----15-15---17-17-|
|-15-15-15----15-15----15-|----15----15-15---17-17-|
|-------------------------|------------------------|
|-------------------------|------------------------|
|-------------------------|------------------------|
|-0--0--0--0--0--0--0--0--|-0--0--0--0--0--0--0--0-|

 LR---------------------------------------------------------------------|
|-10--------10-----|-----------------|-----------------|-----------------|
|---------------11-|---------------8-|-----------------|-----------------|
|------------------|-----------------|-------------10--|-----8-----------|
|------------------|-----------------|-----------------|-----------------|
|------------------|-----------------|-----------------|-----------------|
|-8-8-8-8-8-8-8-8--|-8-8-8-8-8-8-8-8-|-8-8-8-8-8-8-8-8-|-8-8-8-8-8-8-8-8-|



Break:

|-5---5-----5-5---|-5----------5--|-5---5-----5-5---|-5-------5-5-5-|
|-5b6-6-----6-6r5-|-5----------5--|-5b6-6-----6-6r5-|-5-------5-5-5-|
|-----------------|---------------|-----------------|---------------|
|-----------------|---------------|-----------------|---------------|
|-----------------|---------------|-----------------|---------------|
|-3-3-3-3-3-3-3-3-|-0-0-0-0-0-0-0-|-3-3-3-3-3-3-3-3-|-0-0-0-0-0-0-0-|

High part staccato and dominated by bass notes
|-5---5-5-5-5-5---|-5---5---5-5-5-|-5---5---5-5-5---|-5---5---5-5-5-|
|-5b6-6-6-6-6-6r5-|-5---5---5-5-5-|-5b6-6---6-6-6r5-|-5---5---5-5-5-|
|-----------------|---------------|-----------------|---------------|
|-----------------|---------------|-----------------|---------------|
|-----------------|---------------|-----------------|---------------|
|-3-3-3-3-3-3-3-3-|-0-0-0-0-0-0-0-|-3-3-3-3-3-3-3-3-|-0-0-0-0-0-0-0-|


Chorus:

|-----------------|-----------------|-----------------|-----------------|
|-----------------|-----------------|-----------------|-----------------|
|-----------------|-----------------|-----------------|-----------------|
|-----------------|-----------------|-----------------|-----------------|
|-----------------|-----------------|-----------------|-----------------|
|-3-3-3-3-3-3-3-3-|-0-0-0-0-0-0-0-0-|-3-3-3-3-3-3-3-3-|-0-0-0-0-0-0-0-0-|

|-----------------|-----------------|-----------------|-----------------|
|-----------------|-----------------|-----------------|-----------------|
|-----------------|-----------------|-----------------|-----------------|
|-----------------|-----------------|-----------------|-----------------|
|-----------------|-----------------|-----------------|-----------------|
|-8-8-8-8-8-8-8-8-|-0-0-0-0-0-0-0-0-|-8-8-8-8-8-8-8-8-|-0-0-0-0-0-0-0-0-|

|-----------------|-----------------|-----------------|-----------------|
|-----------------|-----------------|-----------------|-----------------|
|-----------------|-----------------|-----------------|-----------------|
|-3-3-3-3-3-3-3-3-|-0-0-0-0-0-0-0-0-|-3-3-3-3-3-3-3-3-|-0-0-0-0-0-0-0-0-|
|-3-3-3-3-3-3-3-3-|-0-0-0-0-0-0-0-0-|-3-3-3-3-3-3-3-3-|-0-0-0-0-0-0-0-0-|
|-3-3-3-3-3-3-3-3-|-0-0-0-0-0-0-0-0-|-3-3-3-3-3-3-3-3-|-0-0-0-0-0-0-0-0-|

|-----------------|-----------------|-----------------|-----------------|
|-----------------|-----------------|-----------------|-----------------|
|-----------------|-----------------|-----------------|-----------------|
|-8-8-8-8-8-8-8-8-|-0-0-0-0-0-0-0-0-|-8-8-8-8-8-8-8-8-|-0-0-0-0-0-0-0-0-|
|-8-8-8-8-8-8-8-8-|-0-0-0-0-0-0-0-0-|-8-8-8-8-8-8-8-8-|-0-0-0-0-0-0-0-0-|
|-8-8-8-8-8-8-8-8-|-0-0-0-0-0-0-0-0-|-8-8-8-8-8-8-8-8-|-0-0-0-0-0-0-0-0-|


Outro:

|-5---5---5-5-5---|-5---5---5-5-5-|-5---5---5-5-5---|-5---5---5-5-5-|
|-5b6-6---6-6-6r5-|-5---5---5-5-5-|-5b6-6---6-6-6r5-|-5---5---5-5-5-|
|-----------------|---------------|-----------------|---------------|
|-----------------|---------------|-----------------|---------------|
|-----------------|---------------|-----------------|---------------|
|-3-3-3-3-3-3-3-3-|-0-0-0-0-0-0-0-|-3-3-3-3-3-3-3-3-|-0-0-0-0-0-0-0-|

|-8---8---8-8-8---|-8---8---8-8-8-|-8---8---8-8-8---|-8---8---8-8-8-|
|-8b9-9---9-9-9r8-|-8---8---8-8-8-|-8b9-9---9-9-9r8-|-8---8---8-8-8-|
|-----------------|---------------|-----------------|---------------|
|-----------------|---------------|-----------------|---------------|
|-----------------|---------------|-----------------|---------------|
|-8-8-8-8-8-8-8-8-|-0-0-0-0-0-0-0-|-8-8-8-8-8-8-8-8-|-0-0-0-0-0-0-0-|
Tap to rate this tab
 
# A B C D E F G H I J K L M N O P Q R S T U V W X Y Z