Song name
# A B C D E F G H I J K L M N O P Q R S T U V W X Y Z

The Kills - Future Starts Slow tab

The intro for the song 'future starts now' by 'the kills'!

E]-----7--7--7---------7p0-------7--7--7-------7--7--7--|
B]------------------------------------------------------|
G]-----4--4--4-------------------4--4--4-------4--4--4--|
D]------------------------------------------------------|
A]-4---------------7---------0-------------7------------|
E]------------------------------------------------------|


E]-----7--7--7---------7p0-------7--7--7------------------|
B]--------------------------------------------------------|
G]-----4--4--4-------------------4--4--4------------------|
D]--------------------------------------------------------|
A]-4---------------7---------0-------------7--------------|
E]--------------------------------------------------------|
Tap to rate this tab
 
# A B C D E F G H I J K L M N O P Q R S T U V W X Y Z