Song name
# A B C D E F G H I J K L M N O P Q R S T U V W X Y Z

The Kills - Fuck The People tab

Intro
E-------------------------------------------------|
B-------------------------------------------------|
G-------------------------------------------------|
D---9--9--9-9------7/9-------99/12/9-99/7/9-------|
A---9--9--9-9-(18x)7/9-(2x)--99/12/9-99/7/9-------|
E---7--7--7-7------5/7-------77/10/9-77/5/7-------|

Same as intro


You want a warning, You got a warning...
E-------------------------------------------------|
B-------------------------------------------------|
G-------------------------------------------------|
D-99999999912/9-----99/7/9------------------------|
A-99999999912/9-----99/7/9------------------------|
E-77777777710/9-----77/5/7------------------------|

Bet you something I can get your mouth shut...
E-------------------------------------------------|
B-------------------------------------------------|
G-------------------------------------------------|
D-99/7/9--99-9/7----------------------------------|
A-99/7/9--99-9/7----------------------------------|
E-77/5/7--77-7/5----------------------------------|

You want a warning, You got a warning...
E-------------------------------------------------|
B-------------------------------------------------|
G-------------------------------------------------|
D-99999999912/9-----99/7/9---99/7--99/7/9---------|
A-99999999912/9-----99/7/9---99/7--99/7/9---------|
E-77777777710/9-----77/5/7---77/5--77/5/7---------|

Hey, fuck the people...
E-------------------------------------------------|
B-------------------------------------------------|
G-------------------------------------------------|
D-7-7-7-7-7-9-99---------INTRO AGAIN--------------|
A-7-7-7-7-7-9-99----------------------------------|
E-5-5-5-5-5-7-77----------------------------------|
Tap to rate this tab
# A B C D E F G H I J K L M N O P Q R S T U V W X Y Z