Song name
# A B C D E F G H I J K L M N O P Q R S T U V W X Y Z

The Kills - Baby Says tab

Intro & instrumental breaks
e-----10----8-----|7---------7b8b7-|5---------------|5b6-5-----------|
B-----------------|----------------|----------------|-------3-5------|
G-----------------|----------------|----------------|----------------|
D-----------------|----------------|----------------|----------------|
A-----------------|----------------|----------------|----------------|
C-9-9-9-9-9-9-9-9-|7-7-7-7-7-7-7-7-|5-5-5-5-5-5-5-5-|5-5-5-5-5-5-5-5-|

e-----10----8-----|7---------7b8b7-|5---------------|5-5---3-5-3-5---|
B-----------------|----------------|----------------|----------------|
G-----------------|----------------|----------------|----------------|
D-----------------|----------------|----------------|----------------|
A-----------------|----------------|----------------|----------------|
C-9-9-9-9-9-9-9-9-|7-7-7-7-7-7-7-7-|5-5-5-5-5-5-5-5-|5-5-5-5-5-5-5-5-|

Verse and chorus

e-----------------|----------------|----------------|----------------|
B-----------------|----------------|----------------|----------------|
G-----------------|----------------|----------------|----------------|
D-----------------|----------------|----------------|----------------|
A-----------------|----------------|----------------|----------------|
C-0-0-0-0-0-0-0-0-|0-0-0-0-0-0-0-0-|0-0-0-0-0-0-0-0-|0-0-0-0-0-0-0-0-|

e-----------------|----------------|----------------|----------------|
B-----------------|----------------|----------------|----------------|
G-----------------|----------------|----------------|----------------|
D-----------------|----------------|----------------|----------------|
A-----------------|----------------|----------------|----------------|
C-5-5-5-5-5-5-5-5-|5-5-5-5-5-5-5-5-|7-7-7-7-7-7-7-7-|7-7-7-7-7-7-7-7-|
Tap to rate this tab
 
# A B C D E F G H I J K L M N O P Q R S T U V W X Y Z