Song name
# A B C D E F G H I J K L M N O P Q R S T U V W X Y Z

The Kills - Monkey 23 chords

Highlighted       Show chord diagrams
Chords by Capo
nicolas.phister@hotmail.fr
Standard tuning


E E F# B

A B B A B

E E F# B

A B B A B

E E F# B

B A B

E E F# B B

E                      B                        E
There's a monkey on my back, makes me talk like that

         E F#          B                        E
There's a monkey on my back, makes me talk like that

         E F#          B A B B A                E
There's a monkey on my back, makes me act like that 

         E F#          B                        E
There's a monkey on my back, makes me talk like that

E |---------------------0---------------|
B |---------------------0---------------|
G |-4---4-4-4-4-4---4-4-1---------------|
D |-4h6-4-4-4-4-4h6-4-4-2---------------| 
A |---------------------2---------------|
E |---------------------0---------------|

E |---------------------0---------------|
B |---------------------0---------------|
G |-4---4-4-4-4-4---4-4-1---------------|
D |-4h6-4-4-4-4-4h6-4-4-2---------------| 
A |---------------------2---------------|
E |---------------------0---------------|

E |---------------------0---------------|
B |---------------------0---------------|
G |-4---4-4-4-4-4---4-4-1---------------|
D |-4h6-4-4-4-4-4h6-4-4-2---------------| 
A |---------------------2---------------|
E |---------------------0---------------|


E |-----------------------0-------------|
B |-----------------------0-------------|
G |-----------------------1-------------|
D |-4----4----4---4---4-4-2-------------| 
A |-4h6--4h6--4h6-4h6-6-6-2-------------|
E |-----------------------0-------------|

(E)      E F#          B              (B A)    E
There's a monkey on my back, makes me act like that

         E F#          B              (B A)    E
There's a monkey on my back, makes me act like that

         E F#          B A B B A                E
There's a monkey on my back, makes me talk like that

         E F#          B     B A               E
There's a monkey on my back, makes me act like that

E |---------------------0---------------|
B |---------------------0---------------|
G |-4---4-4-4-4-4---4-4-1---------------|
D |-4h6-4-4-4-4-4h6-4-4-2---------------| 
A |---------------------2---------------|
E |---------------------0---------------|

E |---------------------0---------------|
B |---------------------0---------------|
G |-4---4-4-4-4-4---4-4-1---------------|
D |-4h6-4-4-4-4-4h6-4-4-2---------------| 
A |---------------------2---------------|
E |---------------------0---------------|

E |---------------------0---------------|
B |---------------------0---------------|
G |-4---4-4-4-4-4---4-4-1---------------|
D |-4h6-4-4-4-4-4h6-4-4-2---------------| 
A |---------------------2---------------|
E |---------------------0---------------|


E |-----------------------0-------------|
B |-----------------------0-------------|
G |-----------------------1-------------|
D |-4----4----4---4---4-4-2-------------| 
A |-4h6--4h6--4h6-4h6-6-6-2-------------|
E |-----------------------0-------------|

B B A E
E F# B
B A E
E F# B
B A E
E F# B
Tap to rate this tab
# A B C D E F G H I J K L M N O P Q R S T U V W X Y Z