Song name
# A B C D E F G H I J K L M N O P Q R S T U V W X Y Z

The Kills - Pots And Pans Live tab

The song is usually tuned to B, but live (glastonbury 2011) they use C tuning. if you 
want to play it with the record, you only have to tune every string one note down. its 
like drop c tuning, only the 5th string is a f instead of a g.

D|-------------------------------------------------|
A|-------------------------------------------------|
F|-------------------------------------------------|
C|-----------------0~--------------4~--------------|  2x
F|-------------------------------------------------|
C|-0-0-0-0-0-0-0-0-0-0-0-0-0-0-0-0-0-0-0-0-0-0-0-0-|

He slides up and down a few times:
D|-------------------------------------------------|
A|-------------------------------------------------|
F|-------------------------------------------------|
C|---------------------------------/\/\/\----------|
F|-------------------------------------------------|
C|-0-0-0-0-0-0-0-0-0-0-0-0-0-0-0-0-0-0-0-0-0-0-0-0-|

Verse:
D|---------------------------------------------------------|
A|---------------------------------------------------------|
F|---------------------2~------------------2~--------------|
C|-----------------2-4-------2-4-0~----2-4-------2-4-0~----|
F|---------------------------------------------------------|
C|-0-0-0-0-0-0-0-0-0-0-0-0-0-0-0-0-0-0-0-0-0-0-0-0-0-0-0-0-|

D|-------------------------------------------------|
A|-------------------------------------------------|
F|-------------------------------------------------|
C|---3~------2-0-------2---------0~----------------|
F|-----------------------5-5-5-5-------------------|
C|-0-0-0-0-0-0-0-0-0-0-0-0-0-0-0-0-0-0-0-0-0-0-0-0-|

D|---------------------------------------------------------|
A|---------------------------------------------------------|
F|---------------------2~------------------2-2-4-4-4-2~----|
C|-----------------2-4-------2-4-0~----2-4-----------------|
F|---------------------------------------------------------|
C|-0-0-0-0-0-0-0-0-0-0-0-0-0-0-0-0-0-0-0-0-0-0-0-0-0-0-0-0-|

D|-------------------------------------------------|
A|-------------------------------------------------|
F|-------------------------------------------------|
C|---3~------2-0-------2---------0~----------------|
F|-----------------------5-5-5-5-------------------|
C|-0-0-0-0-0-0-0-0-0-0-0-0-0-0-0-0-0-0-0-0-0-0-0-0-|

D|-------------------------------------------------|
A|-8-6-------8-6-------8-6---6~--------------------|
F|-----7---------7---------7-----5-7~--------------|
C|-----------------------------7-------------------|  2x
F|-------------------------------------------------|
C|-0-0-0-0-0-0-0-0-0-0-0-0-0-0-0-0-0-0-0-0-0-0-0-0-|

D|-----------------------------------------------------------|
A|-----------------------------------------------------------|
F|-----2~------------------2-2-4-4-4-2~------2~--------------|
C|-2-4-------2-4-0~----2-4---------------2-4-------2-4-0~----|
F|-----------------------------------------------------------|
C|-0-0-0-0-0-0-0-0-0-0-0-0-0-0-0-0-0-0-0-0-0-0-0-0-0-0-0-0-0-|

D|-------------------------------------------------------------------|
A|-------------------------------------------------------------------|
F|-----------------------------------------------5-2---2~------------|
C|-3-3-3-3-2-0~--------------------0~--------5-5-----5-----------0~--|
F|-----------------------------5-5---------------------------5-5-----|
C|-0-0-0-0-0-0-/\-0~---0-0-0-0-0-0-0-0-0-0-0-0-0-0-0-0-0-0-0-0-0-0-0-|

D|-------10^-------10^------------|
A|-8-6---10^-8-6---10^-6^---------|
F|-----7---------7-------7-5------|
C|---------------------------7~---|  2x
F|--------------------------------|
C|-0-0-0-0-0-0-0-0-0-0-0-0-0-0----|

D|-------------------------------------------------|
A|-----------------6^------------------------------|
F|---5-------5-7~----7-5~------2~------------------|
C|-7---7~--7---------------2-4-----------2-4-0~----|
F|-------------------------------------------------|
C|-0-0-0-0-0-0-0-0-0-0-0-0-0-0-0-0-0-0-0-0-0-0-0-0-|

Then he slides a few times up and down on the low c string...

D|---------------------------------------------------------|
A|---------------------------------------------------------|
F|---------------------2~------------------2-2-4-4-4-2~----|
C|-----------------2-4-------2-4-0~----2-4-----------------|
F|---------------------------------------------------------|
C|-0-0-0-0-0-0-0-0-0-0-0-0-0-0-0-0-0-0-0-0-0-0-0-0-0-0-0-0-|

D|-------------------------------------------------|
A|-------------------------------------------------|
F|-------------------------------------------------|
C|---3~------2-0-------2---------0~----------------|
F|-----------------------5-5-5-5-------------------|
C|-0-0-0-0-0-0-0-0-0-0-0-0-0-0-0-0-0-0-0-0-0-0-0-0-|

Bridge: (it sounds better when you hit only the high strings, and can also play it 
whitout the low c string)

D|-10~---------------8~--------3~--------|
A|-10~---------------8~--------3~--------|
F|-11~---------------9~--------4~--------|
C|-12~---------------10~-------5~--------| 2x
F|-12~---------------10~-------5~--------|
C|-----0-0-0-0-0-0-0-----0-0-0-----0-0-0-|

D|-10~--------------------------8~--------3~--------|
A|-10~--------------------------8~--------3~--------|
F|-11~--------------------------9~--------4~--------|
C|-12~----------10-11-12-11-10--10~-------5~--------|
F|-12~-10-11-12-----------------10~-------5~--------|
C|--------------------------------------------------|

D|--8/-9/10--10-10----8/-9/10--10--10-10----7/-8--8--8--8----3-3-|
A|--8/-9/10--10-10----8/-9/10--10--10-10----7/-8--8--8--8----3-3-|
F|--9/10/11--11-11----9/10/11--11--11-11----8/-9--9--9--9----4-4-|
C|-10/11/12--12-12---10/11/12--12--12-12----9/10-10-10-10----5-5-|
F|-10/11/12--12-12---10/11/12--12--12-12----9/10-10-10-10----5-5-|
C|---------------------------------------------------------------|

he plays at the end a little bit diffrent every time, but you can easily figure it 
out by listening ;)



 ^  bend
| /  slide up
| \  slide down
| h  hammer-on
| p  pull-off
| ~  let ring
| +  harmonic
| x  Mute note
Tap to rate this tab
# A B C D E F G H I J K L M N O P Q R S T U V W X Y Z