Song name
# A B C D E F G H I J K L M N O P Q R S T U V W X Y Z

The King Blues - Chimp In A Three Piece Suit tab

-------------------------------------------------------------------------------
	          The King Blues - Chimp in a 3 Piece suit
-------------------------------------------------------------------------------
Tabbed by: rob
Email: brainwashed_monkey@hotmail.com

Tuning:EADGBe

there are three different guitar parts in this song but they are all variations on this sequence.
use ska style strumming throughout.

intro
e|--------------------------------------------------|
B|---------11~----------11~-----7~-------6~---------|
G|---------11~----------11~-----8~-------6~---------|
D|-----11~----------11~---------8~-------6~---------|
A|--9~-----------8~-------------6~-------4~---------|
E|--------------------------------------------------|

verse
e|--------------------------------------------------------------|
B|--x11-x11-x11-x11--x11-x11-x11-x11--x7-x7-x7-x7--x6-x6-x6-x6--|
G|--x11-x11-x11-x11--x11-x11-x11-x11--x8-x8-x8-x8--x6-x6-x6-x6--|
D|--x11-x11-x11-x11--x11-x11-x11-x11--x8-x8-x8-x8--x6-x6-x6-x6--|
A|--x9--x9--x9--x9---x8--x8--x8--x8---x6-x6-x6-x6--x4-x4-x4-x4--|
E|--------------------------------------------------------------|

chorus
e|--x7-x7--x9-x9---x9-x9--x6-x6------|--x9-x9--x6-x6------|
B|--x7-x7--x9-x9---x11x11-x7-x7------|--x11x11-x7-x7------|
G|--x8-x8--x10x10--x11x11-x8-x8--x4--|--x11x11-x8-x8--x4--|
D|--x9-x9--x11x11--x11x11-x8-x8------|--x11x11-x8-x8------|
A|--x9-x9--x11x11--x9-x9--x6-x6------|--x9-x9--x6-x6------|
E|--x7-x7--x9-x9---------------------|--------------------|

there you have it.  corrections are welcome.

| /  slide up
| \  slide down
| pm palm mute
| h  hammer-on
| p  pull-off
| ~  let ring
| +  harmonic
| x  Mute note
===============================================================================
Tap to rate this tab
# A B C D E F G H I J K L M N O P Q R S T U V W X Y Z