The King Blues - Bonkers tab

This is my first tab ever, so here it goes...

----------------------------------------------------------------------
                        Bonkers    -    The King Blues
----------------------------------------------------------------------

This is The King Blue's cover of Dizzee Rascal's Bonkers, featured in Radio 1's Live Lounge.
Standard Tuning (no capo)

INTRO

|-----------------|----------------|----------------|----------------|
|-----------------|----------------|----------------|----------------|
|-----------------|----------------|----------------|----------------|
|-9---7---5---7---|9---7---5---7---|2-------4-------|5-------7-------|
|-9---7---5---7---|9---7---5---7---|2-------4-------|5-------7-------|
|-7---5---3---5---|7---5---3---5---|0-------2-------|3-------5-------| x2

VERSE 1

(bassline)
|-----------------|----------------|----------------|----------------|
|-----------------|----------------|----------------|----------------|
|-----------------|----------------|----------------|----------------|
|-7---5---3---5---|7---5---3---5---|0-------2-------|3-------5-------| x2

I wake up everyday it's a daydream
Everythin' in my life ain't what it seems
I wake up just to go back to sleep
I act real shallow but I'm in too deep

|-7---------------|----------------|----------------|----------------|
|---(at least on the recording ----|----------------|----------------|
|--- I have, this note is played) -|----------------|----------------|
|-----------------|----------------|----------------|----------------|
|-----------------|----------------|----------------|----------------|
|-----------------|----------------|----------------|----------------|

And all I care about is sex and violence
A heavy bass line is my kind of silence
Everybody says that I gotta get a grip
But I let sanity give me the slip


CHORUS

|-----------------|----------------|----------------|----------------|
|-----------------|----------------|----------------|----------------|
|-----------------|----------------|----------------|----------------|
|-9---7---5---7---|9---7---5---7---|2-------4-------|5-------7-------|
|-9---7---5---7---|9---7---5---7---|2-------4-------|5-------7-------|
|-7---5---3---5---|7---5---3---5---|0-------2-------|3-------5-------| (x2)

Some people think I'm bonkers
But I just think I'm free
Man, I'm just livin' my life
There's nothin' crazy about me

Some people pay for thrills
But I get mine for free
Man, I'm just livin' my life
There's nothin' crazy about me

|-----------------|----------------|----------------|----------------|
|-----------------|----------------|----------------|----------------|
|-----------------|----------------|----------------|----------------|
|-7--7--7--7------|-7--7--7--7-----|-7--7--7--7-----|-7--7--7--7-----|
|-7--7--7--7------|-7--7--7--7-----|-7--7--7--7-----|-7--7--7--7-----|
|-5--5--5--5------|-5--5--5--5-----|-5--5--5--5-----|-5--5--5--5-----|


VERSE 2

(bassline)
|-----------------|----------------|----------------|----------------|
|-----------------|----------------|----------------|----------------|
|-----------------|----------------|----------------|----------------|
|-7---5---3---5---|7---5---3---5---|0-------2-------|3-------5-------| x2

I wake up everyday it's a daydream
Everythin' in my life ain't what it seems
I wake up just to go back to sleep
I act real shallow but I'm in too deep

|-----------------|----------------|----------------|----------------|
|-----------------|----------------|----------------|----------------|
|-----------------|----------------|----------------|----------------|
|-----------------|----------------|2-------4-------|5-------7-------|
|-----------------|----------------|2-------4-------|5-------7-------|
|-----------------|----------------|0-------2-------|3-------5-------|

And all I care about is sex and violence
A heavy bass line is my kind of silence
Everybody says that I gotta get a grip
But I let sanity give me the slip


CHORUS

|-----------------|----------------|----------------|----------------|
|-----------------|----------------|----------------|----------------|
|-----------------|----------------|----------------|----------------|
|-9---7---5---7---|9---7---5---7---|2-------4-------|5-------7-------|
|-9---7---5---7---|9---7---5---7---|2-------4-------|5-------7-------|
|-7---5---3---5---|7---5---3---5---|0-------2-------|3-------5-------| (x2)

Some people think I'm bonkers
But I just think I'm free
Man, I'm just livin' my life
There's nothin' crazy about me

Some people pay for thrills
But I get mine for free
Man, I'm just livin' my life
There's nothin' crazy about me

|-----------------|----------------|----------------|----------------|
|-----------------|----------------|----------------|----------------|
|-----------------|----------------|----------------|----------------|
|-7--7--7--7------|-7--7--7--7-----|-7--7--7--7-----|-7--7--7--7-----|
|-7--7--7--7------|-7--7--7--7-----|-7--7--7--7-----|-7--7--7--7-----|
|-5--5--5--5------|-5--5--5--5-----|-5--5--5--5-----|-5--5--5--5-----|


BRIDGE (sorry the lyrics arenít 100%)

|-----------------|-----------------|-----------------|-----------------|
|-----------------|-----------------|-----------------|-----------------|
|-----------------|-----------------|-----------------|-----------------|
|-2-2-2-2-2-2-2-2-|-4-4-4-4-4-4-4-4-|-5-5-5-5-5-5-5-5-|-7-7-7-7-7-7-7-7-|
|-----------------|-----------------|-----------------|-----------------|
|-----------------|-----------------|-----------------|-----------------|

|-9-7-9-7-9-7-10-7-|-9-7-9-7-9-7-10-7-|-9-7-9-7-9-7-10-7-|-9-7-9-7-9-7-10-7-|
|------------------|------------------|------------------|------------------|
|------------------|------------------|------------------|------------------|
|-2-2-2-2-2-2-2--2-|-4-4-4-4-4-4-4--4-|-5-5-5-5-5-5-5--5-|-7-7-7-7-7-7-7--7-|
|------------------|------------------|------------------|------------------|
|------------------|------------------|------------------|------------------|
(here there are two guitars, but I compressed them into one for simplicity)

|-9-7-9-7-9-7-10-7-|-9-7-9-7-9-7-10-7-|-9-7-9-7-9-7-10-7-|-9-7-9-7-9-7-10-7-|
|------------------|------------------|------------------|------------------|
|------------------|------------------|------------------|------------------|
|-2-2-2-2-2-2-2--2-|-4-4-4-4-4-4-4--4-|-5-5-5-5-5-5-5--5-|-7-7-7-7-7-7-7--7-|
|------------------|------------------|------------------|------------------|
|------------------|------------------|------------------|------------------|

When I wake up, I wake up screaming
Live my life but I'm still dreaming
All my friends think I'm loco
I drink bed till they drink cocao

|-9-7-9-7-9-7-10-7-|-9-7-9-7-9-7-10-7-|-9-7-9-7-9-7-10-7-|-9-7-9-7-9-7-10-7-|
|------------------|------------------|------------------|------------------|
|------------------|------------------|------------------|------------------|
|-2-2-2-2-2-2-2--2-|-4-4-4-4-4-4-4--4-|-5-5-5-5-5-5-5--5-|-7-7-7-7-7-7-7--7-|
|------------------|------------------|------------------|------------------|
|------------------|------------------|------------------|------------------|

Know what I mean, Ďcos Iím free
There aint nothing wrong with me
They say that ?????? (canít determine lyrics)
But thatís when Iím at my best


CHORUS (TWICE!!!!!)

|-----------------|----------------|----------------|----------------|
|-----------------|----------------|----------------|----------------|
|-----------------|----------------|----------------|----------------|
|-9---7---5---7---|9---7---5---7---|2-------4-------|5-------7-------|
|-9---7---5---7---|9---7---5---7---|2-------4-------|5-------7-------|
|-7---5---3---5---|7---5---3---5---|0-------2-------|3-------5-------| (x2)

Some people think I'm bonkers
But I just think I'm free
Man, I'm just livin' my life
There's nothin' crazy about me

Some people pay for thrills
But I get mine for free
Man, I'm just livin' my life
There's nothin' crazy about me


OUTRO

|-----------------|----------------|----------------|----------------|
|-----------------|----------------|----------------|----------------|
|-----------------|----------------|----------------|----------------|
|-9---9---9---9---|-9---9---9------|----------------|----------------|
|-9---9---9---9---|-9---9---9------|----------------|----------------|
|-7---7---7---7---|-7---7---7------|----------------|----------------|
                               Bonkers
Tap to rate this tab
 
# A B C D E F G H I J K L M N O P Q R S T U V W X Y Z