Song name
# A B C D E F G H I J K L M N O P Q R S T U V W X Y Z

The King Khan And Bbq Show - Why Dont You Lie tab

Here are the chords by measure... All Bar chords pluck the first three strings
from the root note then splash the high strings and pluck two more going back down

Intro
[F]   [F]              [Dm] [Dm]         X4
 Ba...by Why Don't you lie...

Verse:
[F]       [F]       [Dm]           [Dm]
If you say you'll be through with us
[F]              [F]      [Dm]  [C]        X2
Don't you ever think you'll leave my Wo?

Chorus:
[G]             [G]   [C]  [C]
Why don't You Lie?

Bridge: Down Strum eight notes
[F]  [F]  [Dm]   [Dm]

Gist of Solo over Bridge...


---------------------------------------------------------------------------|
---77777777--55555555------------------------------------------------------|
----------------------77777777--5---5----------------5-5-------------------|
----------------------------------8---55555555-5--8------8--5{5)-----------|
---------------------------------------------------------------------------|
---------------------------------------------------------------------------|

---------------------------------------------------------------------------|
---77777777--55555555------------------------------------------------------|
----------------------77777777-7-5--5 --5--------------5-5----5------------|
----------------------------------8------8--555555-5--8---8-5--8--5--------|
---------------------------------------------------------------------------|
---------------------------------------------------------------------------|


http://www.myspace.com/thekingkhanbbqshow
Tap to rate this tab
# A B C D E F G H I J K L M N O P Q R S T U V W X Y Z