Song name
# A B C D E F G H I J K L M N O P Q R S T U V W X Y Z

The King Khan And Bbq Show - Ill Never Belong tab

Intro/Verse
C / / / | / / / / | F / / / | G / / / |

During the intro the lead guitar is arpeggiating C Am G.
During the verse the lead is playing some bluesy stuff like:

(Swinging 8th notes)
            C                   C
e|---------------------|---------------------|
B|---------------------|---------------------|
G|---------------------|---------------------|
D|-5-5--5-5--5-5--5-5--|-5-5-/7-7--5-5-------|
A|-3-3--3-3--3-3--3-3--|-3-3------------7-7--|
E|---------------------|---------------------|
            F                   G
e|-------------------|-------------------|
B|-------------------|-------------------|
G|-------------------|-------------------|
D|-------------------|-------------------|
A|-3-3--5-3--5-5--3--|-5-5--7-5--7-7--5--|
E|-1-1---------------|-3-3---------------|


Chorus ("And after all...")
A / / / | / / / / | E / / / | / / / / | F / / / | G / / / |

"But I'll..."
C / / / | C7 / / / | Am / / / | / / / / | F / / / | G / / / | C / / / | G / / / |

Those are all the main parts. The rest of the song after the first chorus is just
During the solo section the lead guitar is just arpeggiating each chord and adding a few
notes between chords as the rhythm plays through the verse then chorus (this is a great 
for improvisation).
Tap to rate this tab
 
# A B C D E F G H I J K L M N O P Q R S T U V W X Y Z