Song name
# A B C D E F G H I J K L M N O P Q R S T U V W X Y Z

The King Left - In The Sunlight tab

Intro

Guitar 1 - Palm Muted, Slight Distortion
E|--------------------------------|--------------------------------|
B|--------------------------------|--------------------------------|
G|--------------------------------|--------------------------------|
D|--------------------------------|--------------------------------|
A|7-7-7-7-7-7-7-7-7-7-7-7-7-7-7-7/|12121212121212121212121212121212|
E|5-5-5-5-5-5-5-5-5-5-5-5-5-5-5-5/|10101010101010101010101010101010|
PM. . . . . . . . . . . . . . . .  . . . . . . . . . . . . . . . . 

E|--------------------------------|--------------------------------|
B|--------------------------------|--------------------------------|
G|--------------------------------|--------------------------------|
D|--------------------------------|--------------------------------|
A|7-7-7-7-7-7-7-7-7-7-7-7-7-7-7-7/|1212121212121212--9-9-9-9-1010--|
E|5-5-5-5-5-5-5-5-5-5-5-5-5-5-5-5/|1010101010101010--7-7-7-7-8-8---|
PM. . . . . . . . . . . . . . . .  . . . . . .       . . . . . .   

Guitar 2 - Clean, Reverb
E|--|--------------------------------|--------------------------------|
B|--|--------------------------------|--------------------------------|
G|4/|6~----6/4~----4/9~----9\6~----4/|6---6-6-6-6-6-6-----------------|
D|--|--------------------------------|--------------------------------|
A|--|--------------------------------|--------------------------------|
E|--|--------------------------------|--------------------------------|



Verse 

Guitar 1 - Palm Mute, Slight Distortion
E|--------------------------------|
B|--------------------------------|
G|--------------------------------|
D|------------------------------7-|
A|7-7-7-7-7-7-7-121212129-9-10107-|
E|5-5-5-5-5-5-5-101010107-7-8-8-5-|x2
PM. . . . . . . . . . . . . . .   

E|--------------------------------|
B|--------------------------------|
G|----------------7-7-------------|
D|7-----7-4-------7-7---9-9-1010--|
A|7---7-----5-4-5-5-5---9-9-1010--|
E|5-5-------------------7-7-8-8---|x2



Pre-Chorus

Guitar 1 - Slightly Distorted
E|--------------------------------|
B|--------------------------------|
G|--------------------------------|
D|3-3---9---1010--7-7---9---1010--|
A|3-3---9---1010--7-7---9---1010--|
E|1-1---7---8-8---5-5---7---8-8---|x4

Guitar 2 - Distorted
E|--------------------------------|
B|--------------------------------|
G|7-7---7---5-5-5/7-7---7---9-9-9\|
D|--------------------------------|
A|5-5---5---3-3-3/5-5---5---7-7-7\|
E|--------------------------------|x2



Chorus

Guitar 2 - Slightly Distorted
E|8---8---8---10------------------|--------------------------------|
B|--7---7---7---10~-----------10\-|----7---7---7-10--10--10--10--10|
G|--------------------------------|--------------------8---8---8---|
D|--------------------------------|9-----9---9---------------------|
A|--------------------------------|--------------------------------|
E|--------------------------------|--------------------------------|




The King Left Official Website: http://www.myspace.com/thekingleft
Tap to rate this tab
 
# A B C D E F G H I J K L M N O P Q R S T U V W X Y Z