Song name
# A B C D E F G H I J K L M N O P Q R S T U V W X Y Z

The Kissaway Trail - New Lipstick tab

Great Danish band 
THE KISSAWAY TRAIL
Song: NEW LIPSTICK 
From the album SILENT MOUNTAIN

This is my take on the song, works great acoustic with 2 guitars. Enjoy! 


Tuning:EADGBE

Riff Intro : (This is really a mandolin playing this, but works fine on a guitar)

e|--------------------------12-12-12-12-12-12-12-12--------------------------|
B|--------------------13-13--------------------------------------------------|
G|-----------12-12-12--------------------------------------------------------|  X2
D|--10-10-10-----------------------------------------------------------------|
A|---------------------------------------------------------------------------|
E|---------------------------------------------------------------------------|


e|--------------------12-12--------------------------------------------------|
B|---------------------------------------------------------------------------|
G|-----------12-12-12--------------------------------------------------------|
D|--10-10-10-----------------------------------------------------------------| X4
A|---------------------------------------------------------------------------|
E|---------------------------------------------------------------------------|

e|--------------------------12-12-12-12-12-12-12-12--------------------------|
B|--------------------13-13--------------------------------------------------|
G|-----------12-12-12--------------------------------------------------------|  X2
D|--10-10-10-----------------------------------------------------------------|
A|---------------------------------------------------------------------------|
E|---------------------------------------------------------------------------|

(The following is also verse)

e|--------------------12-12--------------------------------------------------|
B|---------------------------------------------------------------------------|
G|-----------12-12-12--------------------------------------------------------|
D|--10-10-10-----------------------------------------------------------------| X8
A|---------------------------------------------------------------------------|
E|---------------------------------------------------------------------------|

e|---------------------------------------------------------------------------|
B|---------------------13-13-------------------------------------------------|
G|-----------12-12-12--------------------------------------------------------|
D|--10-10-10-----------------------------------------------------------------| X8
A|---------------------------------------------------------------------------|
E|---------------------------------------------------------------------------|

e|--------------------12-12--------------------------------------------------|
B|---------------------------------------------------------------------------|
G|-----------12-12-12--------------------------------------------------------|
D|--10-10-10-----------------------------------------------------------------| X2
A|---------------------------------------------------------------------------|
E|---------------------------------------------------------------------------|

F
Glasses full of fermented juice of grapes.
       C                                    Em
To winnow the truth from conflicting things.
           Am                                                           F
The city lights were winking, lights were winking,lights were winking, tonight.
       C
Yeah tonight.

F 
Wine on your jumper of pure virgin yarn.
         C                                 Em
And our city torn by the young in grief.
           Am                                                               F
Yeah, the young ones did it, the young ones did it, the young ones did it, tonight.
        C
Yeah tonight.

C - C - F - F - C
Aahhh

      F
She pouted to show of her new lipstick.
             C                                    Em
But really needed someone to hear her tale of woe.
     Am                                                          F
The old wont get it, the old wont get us, the old wont get us, tonight.
   C
Us tonight.

(Play same chords as above)
 
Us tonight, again tonight, it's all about tonight, the young one's did
it tonight.
                       E
Yeah we did it tonight. 
F
E - F                              
C - G

C - F
Ahhh..
         C - G               F
                Tell us what you want
         G                      C
                Tell us what you need
(And then just repeat)

Outro Riff:

e|------------------------------4-4---4-4---4-4---4-4------------------------|
B|--5-5----5-5----5-5----5-5-------------------------------------------------|
G|-----4-4----4-4----4-4----4-4----5-5---5-5---5-5---5-5---------------------|x2
D|---------------------------------------------------------------------------|
A|---------------------------------------------------------------------------|
E|---------------------------------------------------------------------------|

e|--3-3---3-3---3-3---3-3----------------------------------------------------|
B|---------------------------5-5----5-5----5-5----5-5------------------------|
G|-----5-5---5-5---5-5---5-5----4-4----4-4----4-4----4-4---------------------|
D|---------------------------------------------------------------------------|
A|---------------------------------------------------------------------------|
E|---------------------------------------------------------------------------|

And then:

e|--8-8-8-8-8-8-8-8--10-10-10-10-10-10-10-10--12-12-12-12-12-12-12-12-12-12-12-12-12-12-12-12--|
B|--8-8-8-8-8-8-8-8--8--8--8--8--8--8--8--8---13-13-13-13-13-13-13-13-13-13-13-13-13-13-13-13--|
G|---------------------------------------------------------------------------------------------|
D|---------------------------------------------------------------------------------------------|
A|---------------------------------------------------------------------------------------------|
E|---------------------------------------------------------------------------------------------|

e|-3-3-3-3-3-3-3-3-3-3-3-3-3-3-3-3--1-1-1-1-1-1-1-1--10-10-10-10-10-10-10-10-------------------|
B|-1-1-1-1-1-1-1-1-1-1-1-1-1-1-1-1--1-1-1-1-1-1-1-1--10-10-10-10-10-10-10-10-------------------|
G|---------------------------------------------------------------------------------------------|
D|---------------------------------------------------------------------------------------------|
A|---------------------------------------------------------------------------------------------|
E|---------------------------------------------------------------------------------------------|

Repeat till the end of the song. 
Tap to rate this tab
 
# A B C D E F G H I J K L M N O P Q R S T U V W X Y Z