Song name
# A B C D E F G H I J K L M N O P Q R S T U V W X Y Z

The Kissaway Trail - La La Song tab

Kissaway Trail 
La La Song 
Tabbed by Frej Faurschou

------------------------------------------------------------------------------------------------|
------------------------------------------------------------------------------------------------|
------------------------------------------------------------------------------------------------|
------------------------------------------------------------------------------------------------|
--5-5-5-5-5-5-4-4-4-4-4-4-5-5-5-5-5-5-4-4-4-4-4-4-----------------------------------4-4-4-4-4-4-|
--------------------------------------------------3-3-3-3-3-3-2-2-2-2-2-2-3-3-3-3-3-------------|
 
Let's run away, today 
let's rock them around, in L.A 
the stars.. the stars, the stars, the stars 
will guide us 
what's your delay? why stay? 
let's turn them around in L.A 
and let them stars guide us... 

Dsus2     Gmaj
la la la.... 


-------------------
-------------------
-------------------
------4-------4----
--5-5---5-5-5---4--
-------------------

we were over the mountains 
singin' la la la....
Tap to rate this tab
 
# A B C D E F G H I J K L M N O P Q R S T U V W X Y Z