Song name
# A B C D E F G H I J K L M N O P Q R S T U V W X Y Z

The Kissaway Trail - 61 tab

Help us improve GuitareTab! Take a short survey!
Kissaway Trail
61
Tabbed by Frej Faurschou

---------------------------------------|
--7-----7---------------7--------------|
----7-----7---------------7---9-9-7----|
------7-----7---------7-----7----------|
---------------------------------------|
---------------------------------------| 
 
                          Dsus2
The drums will bring you home 
                            Gmaj
then our hands will do the talking.. 
                 Dsus2
and we will be united! 
                 Gmaj
diamonds for a kiss 
                   Dsus2        
and if there's a god?, say it isn't your turn 


    Gmaj
we can, we're strong, we'll beat it! x2


----------------|
--7-7-8-10-10---|
--7-7-7--7--7---|
--4-4-5--7--7---|
----------------|
----------------| 


                     Dsus2
Writing everything down 
                            Gmaj
in order to keep track of time, I 
             Dsus2
the scent, the day, this moment! 
                         Gmaj
with hands covering my eyes 
                  Dsus2
shadows they're good 

then i know there's light 



 Gmaj
we can, we're strong, we'll beat it! x2
 
www.thekissawaytrail.dk
Related for 61 tab