Song name
# A B C D E F G H I J K L M N O P Q R S T U V W X Y Z

The Klaxons - Golden Skans tab

-----------------------------------------------------------------------------
			     SONG NAME - Band Name
-----------------------------------------------------------------------------
Tabbed by:stratocaster11

Brilliant song so I thought I would submit a tab on how I think it is played. I have
a couple of videos on Youtube of the song being played live and used them to create this
You might want to watch the videos in the links below for strumming patterns and to find 
where some of the riffs come in.
http://www.youtube.com/watch?v=3JAmrLL6Jww
http://www.youtube.com/watch?v=kzYmoqmFazo

Tuning:eBGDAE

Chords used throughout song played in this order:
   Dm  C Gm Am
e|--1--3--3--0--|
B|--3--1--3--1--|
G|--2--0--3--2--|
D|--0--2--5--2--|
A|--0--3--5--0--|
E|--0--0--3--0--|

Pre-Chorus:
e|--------------------------------------------------|
B|--------------------------------------------------|
G|--2--2--2--2--5--5--5--5--2--2--2--2--5--5--0--0--|
D|--------------------------------------------------|
A|--------------------------------------------------|
E|--------------------------------------------------|

e|--------------------------------------------------|
B|--------------------------------------------------|
G|--2--2--2--2--5--5--5--5--2--2--2--2--5--5--0--0--|
D|--------------------------------------------------|
A|--------------------------------------------------|
E|--------------------------------------------------|

e|--------------------------------------------------|
B|--------------------------------------------------|
G|--2--2--2--2--5--5--5--5--2--2--2--2--5--5--0--0--|
D|--------------------------------------------------|
A|--------------------------------------------------|
E|--------------------------------------------------|

e|--------------------------------------------------|
B|--------------------------------------------------|
G|--2--2--2--2--5--5--5--5--2--2--2--2--6--6--6--6--|
D|--------------------------------------------------|
A|--------------------------------------------------|
E|--------------------------------------------------|

Chorus:
e|---------------------------12------12------12------12------|
B|-----------------------------------------------------------|
G|--14--15--12--14--15~--15------15------15------15------15--|
D|-----------------------------------------------------------|
A|-----------------------------------------------------------|
E|-----------------------------------------------------------|

This next bit is played in the second verse:
e|--x\--x/--x\--x/--|
B|--x\--x/--x\--x/--|
G|--x\--x/--x\--x/--|
D|--x\--x/--x\--x/--|
A|--x\--x/--x\--x/--|
E|--x\--x/--x\--x/--|

This riff is played near the end of the song over and over till the song ends:
e|------------------------------|
B|--14--2--14--2--14--2--14--2--|
G|------------------------------|
D|------------------------------|
A|------------------------------|
E|------------------------------|


************************************

| /   slide up
| \   slide down
| h   hammer-on
| p   pull-off
| ~   vibrato
| +   harmonic
| x   Mute note
| b   Bend
| pb  Pre-bend
| br  Bend release
| pbr Pre-bend release
| brb Bend release bend

************************************
Tap to rate this tab
# A B C D E F G H I J K L M N O P Q R S T U V W X Y Z