Song name
# A B C D E F G H I J K L M N O P Q R S T U V W X Y Z

The Klaxons - Atlantis To Interzone tab

Artist - The Klaxons
Track - Atlantis To Interzone
Tabbed By - Hazal
Date - 30/06/08

ok so this is my first song i've tabbed so be nice. the rhythm is a bit off so
you'll have to work that out.

E --------------------------|
B --------------------------|
G-- ------------------------|
D --------------------------|  x3
A --------5-7-5-------------|
E -5-5-5-8------1-1-1-3-1-3-|



E-------------------------|
B-------------------------|
G-------------------------|
D-------------------------|
A-------------------------|
E-4-4-4-3-3-3-4-4-4-3-3-3-|



E --------------------------|
B --------------------------|
G-- ------------------------|
D --------------------------|  x3
A --------5-7-5-------------|
E -5-5-5-8------1-1-1-3-1-3-|



E-------------------------|
B-------------------------|
G-------------------------|
D-------------------------|
A-------------------------|
E-4-4-4-3-3-3-4-4-4-3-3-3-|

'good thieves and burning cars encircle poisoned rivers, minds and hearts
horses want to dance but find their wings are damaged, water damaged.
gold is selling now so hurry mighty ocean rising fast.
a big man with a plan has got a storm coming monster coming.'



E---------------------|
B---------------------|
G---------------------|
D---------------------| x4
A---------------------|
E-5----8----1----0----|



E --------------------------|
B --------------------------|
G-- ------------------------|
D --------------------------|  x3
A --------5-7-5-------------|
E -5-5-5-8------1-1-1-3-1-3-|



E-------------------------|
B-------------------------|
G-------------------------|
D-------------------------|
A-------------------------|
E-4-4-4-3-3-3-4-4-4-3-3-3-|



E-------------------------|
B-------------------------|
G-------------------------|
D--------8----------------|  x12
A-7-7-7-7---7--------10---|
E-------------7-7-7-7---7-|

the fifth time this is played they begin singing the best bit
'from atlantis to interzone
you start at the end and you end on your own,
from atlantis to interzone
you start at the end and you end on the throne.'

"with fragments of fiction'....



E --------------------------|
B --------------------------|
G-- ------------------------|
D --------------------------|  x3
A --------5-7-5-------------|
E -5-5-5-8------1-1-1-3-1-3-|



E-------------------------|
B-------------------------|
G-------------------------|
D-------------------------|
A-------------------------|
E-4-4-4-3-3-3-4-4-4-3-3-3-|



E---------------------|
B---------------------|
G---------------------|
D---------------------| x4
A---------------------|
E-5----8----1----0----|

'yer dead man half alive who hands from helping numbers 1,2,3
his ears ears pricked with a knife hears that east are coming, west are coming.
from gravity's rainbow the axis here is still unknown..
the children's faces glow
the wasteland guides them
wasteland guides them'

E-------------------------|
B-------------------------|
G-------------------------|
D--------8----------------|  x16
A-7-7-7-7---7--------10---|
E-------------7-7-7-7---7-|

the fifth time..
'from atlantis to interzone
you start at the end and you end on your own,
from atlantis to interzone
you start at the end and you end on the throne.
from atlantis to interzone
you start at the end and you end on the throne.



E-------------------------|
B-------------------------|
G-------------------------|
D-------------------------|
A-------------------------|
E-4-4-4-3-3-3-4-4-4-3-3-3-|


"with fragments of fiction'....


YAY

Tap to rate this tab
# A B C D E F G H I J K L M N O P Q R S T U V W X Y Z