Song name
# A B C D E F G H I J K L M N O P Q R S T U V W X Y Z

The Klaxons - Atlanits To Interzone tab

Intro & Main Riff

1st bit
                                                                _
G|-------------------------------------------|                   |
D|---------------10-0-14-0-------------------|                   |
A|--12-1212-1212-----------8-88-88-10-0-7-0--| x3                |
E|-------------------------------------------|                   |
                                                                 |        Then 2nd Bit   
                                                 | x2
                                                                 |
G|-------------------------------------------------------|       |
D|-------------------------------------------------------|       |
A|--11-1111-1111-10-1010-1010-11-1111-1111-10-1010-1010--|       |
E|-------------------------------------------------------|       |
                                                                _|


Verse

G|------------------------------------|
D|---------------10-------------------|
A|--12-1212-1212-----------8-88-88-7--| x4
E|------------------------------------|


Main Riff x2 [with an extra 2nd bit (VVVVVV) at the end]

G|-------------------------------------------------------|
D|-------------------------------------------------------|
A|--11-1111-1111-10-1010-1010-11-1111-1111-10-1010-1010--|
E|-------------------------------------------------------|

Bridge

[pause]

G|--------------------------|
D|----------8---------------|
A|--6-6-6-6--6----------7---| x8
E|--------------5-5-5-5--5--|

G|-------------------------------------------------------|
D|-------------------------------------------------------|
A|--11-1111-1111-10-1010-1010-11-1111-1111-10-1010-1010--| x2
E|-------------------------------------------------------|


Main Riff x2

Verse x4

Main Riff x2 [with an extra VVVVVVVVVVV at the end]

G|-------------------------------------------------------|
D|-------------------------------------------------------|
A|--11-1111-1111-10-1010-1010-11-1111-1111-10-1010-1010--|
E|-------------------------------------------------------|

Bridge

[pause]

G|-------------------------|
D|----------8--------------|
A|--6-6-6-6--6---------7---| x12
E|-------------5-5-5-5--5--|

G|-------------------------------------------------------|
D|-------------------------------------------------------|
A|--11-1111-1111-10-1010-1010-11-1111-1111-10-1010-1010--| x2
E|-------------------------------------------------------|

end on

G|------|
D|------|
A|--11~-|
E|------|
Tap to rate this tab
# A B C D E F G H I J K L M N O P Q R S T U V W X Y Z