Song name
# A B C D E F G H I J K L M N O P Q R S T U V W X Y Z

The Klaxons - Magick tab

-------------------------------------------------------------------------------
			     MAGICK - Ryan Adams and the Cardinals
-------------------------------------------------------------------------------
Tabbed by: Simo

Tuning: Standard

INTRO & VERSE:

e|----------------------------------------------------|
B|----------------------------------------------------|
G|--4--4--------7--7--------------------9--9----9--9--|
D|--4--4--------7--7--------7--7--------9--9----9--9--|
A|--2--2--------5--5--------7--7--------7--7----7--7--|
E|--------------------------5--5----------------------|

CHORUS:
I'm sure you can figure out the strumming yourself
e|-------------------------------------------|
B|-------------------------------------------|
G|---4-----------7---------------------------|
D|---4-----5-----7-----7---------------------|
A|---2-----5-----5-----7---------------------|
E|---------3-----------5---------------------|


AFTER THE 2ND CHORUS
e|---------------------------------------------------------------------------|
B|---------------------------------------------------------------------------|
G|----7--------7-------9-------11--------------------------------------------|
D|----7--------7-------9-------11--------------------------------------------|
A|----5--------5-------7-------9---------------------------------------------|
E|---------------------------------------------------------------------------|

then play the intro once more

===============================================================================
Tap to rate this tab
# A B C D E F G H I J K L M N O P Q R S T U V W X Y Z