Song name
# A B C D E F G H I J K L M N O P Q R S T U V W X Y Z

The Klaxons - Golden Skans tab

----------------------------------------------------------------------------
                     Klaxons - Golden Skans
----------------------------------------------------------------------------

E-mail: milo45@hotmail.co.uk

Tuning: Standard
Slight differences made to the other tab from this song and with an order as the order 
quite complicated:


ORDER:

A x 2

B x 2

C x 2

D x 2

B x 4

C x 2

D x 2

B x 8

:(A):

e|--10--8---3--5-------------------------------------------------------------|
B|--10--8---3--5-------------------------------------------------------------|
G|--10--9---3--5-------------------------------------------------------------|
D|--12--10--5--7-------------------------------------------------------------|
A|--12--10--5--7-------------------------------------------------------------|
E|--10--8---3--5-------------------------------------------------------------|

:(B):

e|---------------------------------------------------------------------------|
B|--10--------11---8------------10-----------11------------------------------|
G|---------------------------------------------------------------------------|
D|---------------------------------------------------------------------------|
A|---------------------------------------------------------------------------|
E|---------------------------------------------------------------------------|

:(C):

e|------------------------------------------------------------------------------|
B|------------------------------------------------------------------------------|
G|--7-----5-------7--------5----------------------------------------------------|
D|-----7-------------5--7-------------------------------------------------------|
A|-----------5------------------------------------------------------------------|
E|------------------------------------------------------------------------------|

:(D):

e|---------------------------------------------------------------------------|
B|---------------------------------------------------------------------------|
G|--2-2-2-2-5-5-5-5-2-2-2-2-5-5-0-2-2-2-2-5-5-5-5-2-2-2-2-5-5-0-0------------|
D|---------------------------------------------------------------------------|
A|---------------------------------------------------------------------------|
E|---------------------------------------------------------------------------|
Tap to rate this tab
 
# A B C D E F G H I J K L M N O P Q R S T U V W X Y Z