Song name
# A B C D E F G H I J K L M N O P Q R S T U V W X Y Z

The Knife - I Just Had To Die tab

Intro:
Riff 1-
e|------0-5-2-0---2---0-5-2-0---2---0-5-2-0-2-------2---2-0---|
B|--3-----------3-------------3---------------3---0---------0-|
G|------------------------------------------------------------| x2
D|------------------------------------------------------------|
A|------------------------------------------------------------|
E|------------------------------------------------------------|


Riff 2-
e|--2---5-2-0-2-----2-0-5-2---2-0-2--|
B|--------------0--------------------|
G|-----------------------------------| x2
D|-----------------------------------|
A|-----------------------------------|
E|-----------------------------------|

Break for bass
Repeat the whole thing three times, then

Riff 2 x1

Riff 1 x2

Riff 2 x1

Hey little girl...
e|---------------2-------------------|
B|--3--------------------------------|
G|-----------------------------------|
D|-----------------------------------|
A|-----------------------------------|
E|-----------------------------------|

and that's it, a nice pentatonic from The Knife.
Tap to rate this tab
 
# A B C D E F G H I J K L M N O P Q R S T U V W X Y Z