Song name
# A B C D E F G H I J K L M N O P Q R S T U V W X Y Z

The Knife - Na Na Na tab

-------------------------------------------------------------------------------
			     Na Na Na - The Knife
-------------------------------------------------------------------------------
Tabbed by: JamesTurkey

Tuning: Standard

Here's the tab for that cool little synth riff. There's really not much else to the 
song. Pretty easy to figure out.

  Dm
e|------------8-10---|
B|---------10--------|
G|----9-10-----------|
D|-12----------------| x4
A|-------------------|
E|-------------------|

  C
e|----------7-8------|
B|--------8----------|
G|----7-9------------|
D|-10----------------| x4
A|-------------------|
E|-------------------|
Tap to rate this tab
 
# A B C D E F G H I J K L M N O P Q R S T U V W X Y Z