Song name
# A B C D E F G H I J K L M N O P Q R S T U V W X Y Z

The Knife - Pass This On tab

-------------------------------------------------------------------------------
                             Pass This On : The Knife
-------------------------------------------------------------------------------
Tabbed by: mpsya
Email: marnykino@gmail.com

Here are the two main parts of the song transcribed for guitar.  Obviously there are no 
guitars on the actual track but if you want to play along this should help.

Tuning:
Guitar 1: DADGBe This is for the rhythm part that runs throughout the song and requires 
you to tune your low E string down to D.

Guitar 2: EADGBe This is the steel drum sounding section which is heard during the 
intro, verse breaks and outro. It is in standard tuning.  Use a little delay and pluck with 
your fingers if you want to try and match the recording.



Guitar 1- Drop D. Play as down strokes only. Repeat throughout.
e|---------------------------------------------------------------------------|
B|---------------------------------------------------------------------------|
G|---------------------------------------------------------------------------|
D|--17------8------10------5------8------3------1------5---------------------|
A|--17-X16--8-X16--10-X16--5-X16--8-X16--3-X16--1-X16--5-X16-----------------|
D|--17------8------10------5------8------3------1------5---------------------|




Guitar 2- Standard tuning. Repeat as necessary.
e|--6-------6--8---10--8---6--8--5------------5------------------------------|
B|--8-------8--10--11--10--8--10-6--6---4/6---6------------------------------|
G|----------------------------------7---5/7----------------------------------|
D|---------------------------------------------------------------------------|
A|---------------------------------------------------------------------------|
E|---------------------------------------------------------------------------|

e|--11------11--13--15--13--11--13-------------------------------------------|
B|--13------13--15--16--15--13--15--11--8----6h8-----------------------------|
G|----------------------------------12--7----7-------------------------------|
D|---------------------------------------------------------------------------|
A|---------------------------------------------------------------------------|
E|---------------------------------------------------------------------------|

e|--10------10--11--13--11--10--11--8------6h8-------------------------------|
B|--11------11--13--15--13--11--13--10-----6---------------------------------|
G|---------------------------------------------------------------------------|
D|---------------------------------------------------------------------------|
A|---------------------------------------------------------------------------|
E|---------------------------------------------------------------------------|

e|--6-------13--10------10------10-------------------------------------------|
B|--8-------15--11--11--11--11--11--11---------------------------------------|
G|------------------12------12------12---------------------------------------|
D|---------------------------------------------------------------------------|
A|---------------------------------------------------------------------------|
E|---------------------------------------------------------------------------|
Tap to rate this tab
# A B C D E F G H I J K L M N O P Q R S T U V W X Y Z