Song name
# A B C D E F G H I J K L M N O P Q R S T U V W X Y Z

The Knife - Ny Hotel tab

e|---7---7---7---7---7---7---10--10------------|
B|-7---7---7---7---7---7---8---8---------------|
G|---------------------------------------------|
D|---------------------------------------------|
A|---------------------------------------------|
E|---------------------------------------------|

e|---------------------------------------------|
B|---8---8---8---8---8---8---7---7-------------|
G|-5---5---5---5---5---5---7---7---------------|
D|---------------------------------------------|
A|---------------------------------------------|
E|---------------------------------------------|

e|---------------------------------------------|
B|---10--10--10--10--10--10--8---8-------------|
G|-7---7---7---7---7---7---5---5---------------|
D|---------------------------------------------|
A|---------------------------------------------|
E|---------------------------------------------|

e|---7---7---7---7---7---7---7---7-------------|
B|---------------------------------------------|
G|---------------------------------------------|
D|-5---5---5---5---7---7---7---7---------------|
A|---------------------------------------------|
E|---------------------------------------------|
Tap to rate this tab
 
# A B C D E F G H I J K L M N O P Q R S T U V W X Y Z