Song name
# A B C D E F G H I J K L M N O P Q R S T U V W X Y Z

The Knux - Shes So Up tab

-----------------------------------------------------------------
			     Shes So Up – The Knux
-----------------------------------------------------------------
Tabbed by: Death_Leopard
Email: Death_Leopard8@yahoo.com

Heard this song on itunes, had to tab it. Enjoy!
This sounds good with a little bit of fuzz and chorus effects on your amp. 
www.theknux.com/bio/

Tuning: Standard 
					                            +  +
e|-------------------------------------------------------------|
B|-------------------------------------------------------------|
G|-----------------------------------5--5-5-5-5---/-8--8-8-8---|
D|-5-5--5578-8-8-8-8-8-8-\-----------5--5-5-5-5---/-8--8-8-8---|
A|-5-5--5578-8-8-8-8-8-8-\-----------3--3-3-3-3---/-6--6-6-6---|
E|-3-3--3356-6-6-6-6-6-6-\-(5)(5)------------------------------|

e|------------------|
B|------------------|
G|-/-10--10-10-10---|
D|-/-10--10-10-10---|
A|-/-8---8--8--8----|
E|------------------|

Pre-Chorus (0:41)
e|-------------------------|------------------------------|
B|-------------------------|------------------------------|
G|-------------------------|------------------------------|
D|--------------------/-3--|------------------------------|
A|--------3----------------|--3-2-3-/-5-------------------|
E|-0--1-1—--1---0-1-1----1-|--1-0-1-/-3---3-3-3-3---------|

e|----------------------------------------------------------------|
B|----------------------------------------------------------------|
G|----------------------------------------------------------------|
D|--------------------/-3-----------------------------------------|
A|-3-2-333-2-3---2-33-----3-------3-/-5-5-5-5-5-5---8-8-8-8-7-10--|
E|-1-0-111-0-1---0-11-----1-------1-/-3-3-5-3-3-3---6-6-6-6-5-8---|

Chorus			                     +  +
e|-------------------------------------------------------------|
B|-------------------------------------------------------------|
G|-----------------------------------5--5-5-5-5---/-8--8-8-8---|
D|-5-5--5578-8-8-8-8-8-8-\-----------5--5-5-5-5---/-8--8-8-8---|
A|-5-5--5578-8-8-8-8-8-8-\-----------3--3-3-3-3---/-6--6-6-6---|
E|-3-3--3356-6-6-6-6-6-6-\-(5)(5)------------------------------|
 “She’s so up!”

e|------------------|
B|------------------|

G|-/-10--10-10-10---|
D|-/-10--10-10-10---|
A|-/-8---8--8--8----|
E|------------------|

Play with Chorus (1:08)
e|--------------------------------------------|
B|---8--8-------------------------8-----------|
G|-6b—6b---6p5p4-----6-6p5p4---/7-------------|
D|--------------h5----------h5----------------|
A|--------------------------------------------|
E|--------------------------------------------|
“Whoa O Ohhhh” (Repeat)

Bridge
e|----------------------|
B|-8-8-8-6-8-8-8-66-77--|
G|-x-x-x-x-x-x-x-xx-xx--|
D|-5-5-5-3-5-5-5-33-44--| x4
A|----------------------|
E|----------------------|


Check out theknux.com/bio/

************************************

| /   slide up
| \   slide down
| h   hammer-on
| p   pull-off
| +   harmonic
| x   Mute note
| b   Bend

************************************
Tap to rate this tab
 
# A B C D E F G H I J K L M N O P Q R S T U V W X Y Z