Guitaretab - guitar tabs
Song name
# A B C D E F G H I J K L M N O P Q R S T U V W X Y Z

The Kooks - Mr Maker tab

-------------------------------------------------------------------------------
			     Mr Maker  The Kooks
-------------------------------------------------------------------------------
Tabbed by:	xChris1991
Email:		chris.schroed1991@web.de

Can be watched on: http://www.youtube.com/watch?v=-cZAivaKJ0k
Tuning: EADGBe 
[ Tab from: http://www.guitaretab.com/t/the-kooks/105431.html ]
e|------------------------|------------------------------------------------------|
B|------------------------|------------------------------------------------------|
G|------------------------|------------------------9------9-9/11-----------------|
D|---11-11--9-9--7-7------|------7---------------7------------------7------------|
A|-7-----------------10---|--7-9---7---------7-9-----------------------10--9--7--|
E|------------------------|----------10-7-10-------------------------------------|

e|----------------------------------10-9---2-/-7-7--5-5--3--2--0--2--------------|
B|-----------------------------------------3-/-8-8--7-7--5--3--2--3--------------|
G|------------------------9---9 11-----------------------------------------------|
D|------7---------------7--------------------------------------------------------|
A|--7-9---7---------7-9----------------------------------------------------------|
E|----------10-7-10--------------------------------------------------------------|



| /  slide up
| \  slide down
| h  hammer-on
| p  pull-off
| ~  vibrato
| +  harmonic
| x  Mute note
===============================================================================

Related for Mr Maker tab