Song name
# A B C D E F G H I J K L M N O P Q R S T U V W X Y Z

The Kooks - Down To The Market tab

Highlighted       Show chord diagrams
Chords for The Kooks - Down To The Market

This song is actually pretty easy. These are just the chords, so you'll have to figure 
the strumming yourself. Good luck!


Intro / Verse

     G    D    A

e|---x----x----x---|
B|---12---10---5---|
G|---12---11---6---|
D|---12---12---7---|
A|---10---12---7---|
E|---10---10---5---|


Chorus ('I'm getting so tired' bit)

     Em  Bm  G   A

e|---7---7---x---x---|
B|---8---7---3---5---|
G|---9---7---4---6---|
D|---9---9---5---7---|
A|---7---9---5---7---|
E|---7---7---3---5---|
Tap to rate this tab
# A B C D E F G H I J K L M N O P Q R S T U V W X Y Z