Guitaretab - guitar tabs
Song name
# A B C D E F G H I J K L M N O P Q R S T U V W X Y Z

The Kooks - Watching The Ships Roll In tab

Hey! This is my first ever tab, pretty sure its right.
Really Great song, comments would be dardy.
Nic Westall

Capo 2

Verse/Intro

e|---2222--2222--333333--222------------2--2--333333--------|
b|---3333--3333--333333--333------------3--3--333333--------|
g|---4444--4444--000000--222------------4--4--000000--------|
d|---4444--4444--000000-0000-----2h4p---4--4--000000--------|
a|--22222-00000--222222------2s4-----4-22-00--222222--------|
e|--------------3333333----------------------3333333--------|

e|--2222222222---------------|
b|--3333333333---------------|
g|--2222222222---------------|
d|-00000000000-0-4-----------|
a|---------------------------|
e|---------------------------|
[ Tab from: http://www.guitaretab.com/t/the-kooks/108560.html ]
e|---2222--2222--333333--222------------2--2--333333--------|
b|---3333--3333--333333--333------------3--3--333333--------|
g|---4444--4444--000000--222------------4--4--000000--------|
d|---4444--4444--000000-0000-----2h4p---4--4--000000--------|
a|--22222-00000--222222------2s4-----4-22-00--222222--------|
e|--------------3333333----------------------3333333--------|

e|--000000000000000-222222222--------------|
b|--333333333333333-333333333--------------|
g|--333333333333333-444444444--------------|
d|-3333333333333333-444444444--------------|
a|--000000000000000-222222222--------------|
e|-----------------------------------------|

Chorus
e|-2--2--3333333333333333-3--3--222222222222222222-2-2--33333333--------|
b|-3--3--3333333333333333-3--3--333333333333333333-3-3--33333333--------|
g|-4--4--0000000000000000-0--3--444444444444444444-4-4--00000000--------|
d|-4--4--0000000000000000-0--3--444444444444444444-4-4--00000000--------|
a|-2--0--2222222222222222-2--0--222222222222222222-2-0--22222222--------|
e|-------3333333333333333-3-----------------------------33333333--------|

e|--00000000000-22222222222--------------|
b|--33333333333-33333333333--------------|
g|--33333333333-22222222222--------------|
d|--33333333333-00000000000-0------------|
a|--00000000000---------------4----------|
e|---------------------------------------| Back to Verse

Hope It Helps
"Nic Westall"
Related for Watching The Ships Roll In tab