Song name
# A B C D E F G H I J K L M N O P Q R S T U V W X Y Z

The Kooks - Bad Taste In My Mouth tab

Help us improve GuitareTab! Take a short survey!
Hey! I love this song by The Kooks! This is my first tab, so please rate!!


Capo 2nd

All tabs relative to Capo.

Intro:

    G                         Am                    G              
e|---3--3-3-3-3-3-3-3-|     |---0--0-0-0---0--0-0-0---3--3-3-3---3--3-3-3-|
B|---0--0-0-0-1-0-0-0-|     |---1--1-1-1---3--3-3-3---0--0-0-0---0--0-0-0-|
G|---0--0-0-0-0-0-2-0-| X2  |---2--2-2-2---2--2-2-2---0--0-0-0---0--0-0-0-|
D|---0--0-0-0-0-0-0-0-|     |---2--2-2-2---0--0-0-0---0--0-0-0---0--0-0-0-|
A|---0--0-0-0-0-0-0-0-|     |-0-0--0-0-0---0--0-0-0---0--0-0-0---0--0-0-0-|
E|-3-3--3-3-3-3-3-3-3-|     |------------2-2--2-2-2-3-3--3-3-3---3--3-3-3-|


Verse:

Same as Intro.


Chorus:

   D          C          G                     Em         C
e|---2--2-2-2---0--0-0-0---3--3-3-3---3--------0-0--0-0-0---0--0-0-0-|
B|---3--3-3-3---1--1-1-1---0--0-0-0---0--------0-0--0-0-0---1--1-1-1-|
G|---2--2-2-2---0--0-0-0---0--0-0-0---0--------0-0--0-0-0---0--0-0-0-|
D|-0-0--0-0-0---2--2-2-2---0--0-0-0---0--------2-2--2-2-2---2--2-2-2-|
A|------------3-3--3-3-3---0--0-0-0---0--2-----2-2--2-2-2-3-3--3-3-3-|
E|-----------------------3-3--3-3-3-3-3----2-0-0-0--0-0-0------------|

   C                     Am                    G          D
e|---0--0-0-0---0--0-0-0---0--0-0-0---0--0-0-0---3--3-3-3---2--2-2-2-|
B|---1--1-1-1---1--1-1-1---1--1-1-1---1--1-1-1---0--0-0-0---3--3-3-3-|
G|---0--0-0-0---0--0-0-0---2--2-2-2---2--2-2-2---0--0-0-0---2--2-2-2-|
D|---2--2-2-2---2--2-2-2---2--2-2-2---2--2-2-2---0--0-0-0-0-0--0-0-0-|
A|-3-3--3-3-3-3-3--3-3-3-0-0--0-0-0-0-0--0-0-0---0--0-0-0------------|
E|---------------------------------------------3-3--3-3-3------------|

   C          G
e|---0--0-0-0---3--3-3-3-|
B|---1--1-1-1---0--0-0-0-|
G|---0--0-0-0---0--0-0-0-|
D|---2--2-2-2---0--0-0-0-|
A|-3-3--3-3-3---0--0-0-0-|
E|------------3-3--3-3-3-|

Related for Bad Taste In My Mouth tab