Guitaretab - guitar tabs
Song name
# A B C D E F G H I J K L M N O P Q R S T U V W X Y Z

The Kooks - See The World tab

the kooks-see the world

this is what i got out of it well as much as i could....
enjoy

Tabbed by:nick kelly
Email:nick_kelly12345@hotmail.co.uk

Tuning:standard

sorr i couldnt transcribe the whole thing it get harder after the part ive done ;(

gtr. 1 (elec)
with distortion
     G
e|----------------------|
B|---3---3--3-3-3-3-----|
G|---x---x--x-x-x-x-----|play three times
D|---x---x--x-x-x-x-----|
A|----------------------|
E|----------------------|
     G                                    A
e|---------------------------------------------------|
B|---3---3--3--3--3--3--3--3---3---3---x--2----3-----|
G|---x---4--4--4--4--4--4--4---4---4---x--2----4-----|
D|---x---5--5--5--5--5--5--5---5---5---x--2----5-----|
A|-------5--5--5--5--5--5--5---5---5---x--0----5-----|
E|-------3--3--3--3--3--3--0---3---3---x-------3-----|
     G          A    Bm
e|------------------------|
B|---3---3---X--2----3----|
G|---4---4---X--2----4----|play two times
D|---5---5---X--2----4----|
A|---5---5---X--0----2----|
E|---3---3---X------------|
     Bm         A
e|------------------------|
B|---3---3---X--2--2---0--|
G|---4---4---X--2--2---0--|play two times
D|---4---4---X--2--2---0--|
A|---2---2---X--0--0------|
E|-----------X------------|

     G          A    Bm
e|------------------------|
B|---3---3---X--2----3----|
G|---4---4---X--2----4----|play two times
D|---5---5---X--2----4----|
A|---5---5---X--0----2----|
E|---3---3---X------------|
[ Tab from: http://www.guitaretab.com/t/the-kooks/143481.html ]
     Bm         A
e|------------------------|
B|---3---3---X--2--2---0--|
G|---4---4---X--2--2---0--|play two times
D|---4---4---X--2--2---0--|
A|---2---2---X--0--0------|
E|-----------X------------|

     G          A    Bm
e|------------------------|
B|---3---3---X--2----3----|
G|---4---4---X--2----4----|play two times
D|---5---5---X--2----4----|
A|---5---5---X--0----2----|
E|---3---3---X------------|

     Bm         A
e|------------------------|
B|---3---3---X--2--2---0--|
G|---4---4---X--2--2---0--|play two times
D|---4---4---X--2--2---0--|
A|---2---2---X--0--0------|
E|-----------X------------|

     G          A    Bm
e|------------------------|
B|---3---3---X--2----3----|
G|---4---4---X--2----4----|
D|---4---4---X--2----4----|
A|---5---5---X--0----2----|
E|---3---3---X------------|

     Bm          A    Bm
e|------------------------|
B|---3---3---X--2----3----|
G|---4---4---X--2----4----|
D|---4---4---X--2----4----|
A|---2---2---X--0----2----|
E|-----------X------------|

     Bm         A
e|------------------------|
B|---3---3---X--2------0--|
G|---4---4---X--2------0--|play two times
D|---4---4---X--2------0--|
A|---2---2---X--0---------|
E|-----------X------------|

   G          A    
e|------------------------|
B|---3---3---X--2--2--2---|
G|---4---4---X--2--2--2---|
D|---5---5---X--2--2--2---|
A|---5---5---X--0--0--0---|
E|---3---3---X------------|

sorry but i couldnt make out any of the rest of the song ;(

| /  slide up
| \  slide down
| h  hammer-on
| p  pull-off
| ~  vibrato
| +  harmonic
| x  Mute note
============================================================================
Related for See The World tab