Guitaretab - guitar tabs
Song name
# A B C D E F G H I J K L M N O P Q R S T U V W X Y Z

The Kooks - Sweet Jane tab

Highlighted       Show chord diagrams
-------------------------------------------------------------------------------
			    Sweet Jane - The Kooks
-------------------------------------------------------------------------------
You can hear this song at: http://www.youtube.com/watch?v=12h8uCv7bwo
Nice little cover from the kooks, hope you enjoy playing it!

D=Down stroke
U=Up stroke
[ Tab from: http://www.guitaretab.com/t/the-kooks/148894.html ]
Main Riff:
     E   E  B B  A    E  B B
e|---7-x-7--7-7--5-x--7--7-7--------------------------------------------|
B|---9-x-9--7-7--5-x--9--7-7--------------------------------------------|
G|---9-x-9--8-8--6-x--9--8-8--------------------------------------------|
D|---9-x-9--9-9--7-x--9--9-9--------------------------------------------|
A|---7-x-7--9-9--7-x--7--9-9--------------------------------------------|
E|---7-x-7--7-7--5-x--7--7-7--------------------------------------------|
     D D U  U D  D D  U  U D

Chorus:
Sweeeet Jane..... (x2)
     E       A
e|---7-------5--------------------------------------------------|
B|---9-------5--------------------------------------------------|
G|---9-------6--------------------------------------------------|
D|---9-------7--------------------------------------------------|
A|---7-------7--------------------------------------------------|
E|---7-------5--------------------------------------------------|

Chorus 2:
E
Am I rich enought?
B
Am I rought enought?
A
I'm not obliged...
E                    B
I'm not obliged to say.....
Related for Sweet Jane tab