Song name
# A B C D E F G H I J K L M N O P Q R S T U V W X Y Z

The Kooks - Sway tab

-----------------------------------------------------------------------
			     SWAY INTRO - The Kooks
-----------------------------------------------------------------------
Tabbed by: Kevin Croner (Kevin2407)
Email:kevincroner@hotmail.com

- Tuning:eADGBE -
- Capo on 3rd fret -


   Bm            D  Dsus4 G          Em
e|-2---2-2-2-0---2h3-3p2--3-3---3-------------------------------------|
B|-3---3-3-3-0---3---3----3-3---3----0-0---0--------------------------|
G|-4---4-4-4-0---2---2----0-0---0----0-0---0--------------------------|
D|-4---4-4-4(0)--0---0----0-0---0--0h2-2---2--------------------------|
A|-2---2-2-2--------------2-2---2--0h2-2---2--------------------------|
E|-2---2-2-2--------------3-3---3--0-0-0---0--------------------------|

That's pretty much it! This also goes through the whole song, maybe some slight changes to it.
- I hope it was helpful!


| /  slide up
| \  slide down
| h  hammer-on
| p  pull-off
| ~  vibrato
| +  harmonic
| x  Mute note
|(3) Optional note
=======================================================================
Tap to rate this tab
# A B C D E F G H I J K L M N O P Q R S T U V W X Y Z