Song name
# A B C D E F G H I J K L M N O P Q R S T U V W X Y Z

The Kooks - Mr Maker tab


                           -THE KOOKS-

                            -MR MAKER-

         I think its quite accurate.

          INTRO: A  G  F#m  Em


   GT 1:     D  Bm  F#m  A  G  F#m  Em  X2

   GT 2:

       E------------------------------------------------|
       B------------------------------------------------|
       G----------------------9b11----------------------|
       D------7-------------7-----------5/7-5-----------|
       A--7/9---7-7---5-7/9--------------------7/9-7----|
       E------------7-----------------------------------|


       E---------------------------10/9-------------------------|
       B--------------------------------------7h8-7-------------|7"-  " "-vibrato
       G----------------------9b11-------------------9-7-6------|
       D------7-------------7-----------------------------------|
       A--7/9---7-7---5-7/9-------------------------------------|
       E------------7-------------------------------------------|


    VERSE: GT 1:   D  Bm  F#m  A  G  F#m  Em  X3

                   D  Bm  F#m  A  G  F#m  Em  Bm*

    GT 2:when gt 1 plays Bm*:

        E--------14-14--14----17-|
        B------15-------15-------|
        G----16---------16-------|
        D---------------LET------|
        A---------------RING-----|
        E------------------------|


   CHORUS:

     GT 1:  Em  A  D  Bm X2

            Em         A       A  G  F#m  Em
       OH YEAH      OH YEAH


     GT 2:

          Em            A          D          Bm
       E------12----------14----------14---------14--------------|
       B----12--12------14--14------15--15-----15--15------------|
       G--12------12--14------14--14---------16------16----------| x2
       D---------------------------------------------------------|
       A---------------------------------------------------------|
       E---------------------------------------------------------|
           Em                        A
       E---------12-----------12----------14------|
  *    B---------12*----------12*---------14*-----|
 opti  G--12-13-------13--13--------12-13---------|
 onal  D----------------14------------------------|
       A------------------------------------------|
       E------------------------------------------|


       SOLO:During it GT 1 plays  D  Bm  F#m  A  G  F#m  Em  x2

       E----------------------------------------------------------------|
       B-----------------------------10-8-7-8-7-------------10----------|
       G----------------------9b11r9------------9-7-9-7-9/11---9-7-9b11-|
       D------7-------------7-------------------------------------------|
       A--7/9---7-7---5-7/9---------------------------------------------|
       E------------7---------------------------------------------------|


       E--10/9--10/12--10/12-10-------------|         b-bend
       B------------------------------------|         r-release bend
       G------------------------------------|
       D------------------------------------|
       A------------------------------------|
       E------------------------------------|

     VERSE

     CHORUS

     BRIDGE: GT 1:   G    A    G     A       D  Bm   F#m   A  G  F#m  Em

                                             me       me

                                            D  Bm   F#m   A  G  F#m  Em  Bm

                                            me       me


      GT 2:(its hard to hear)


       E--------------------------------------------------|
       B--------------------------------------------------|
       G--------------------------------------------------|
       D-----------------------------------5--7--9--11-12-|
       A--5--7--9--7--7--9--10----5--7--9-----------------|
       E--------------------------------------------------|


       E----------------------------------|
       B----------------------------------|
       G----------------------------------|
       D-12/"14"--12-12/"14"--12-12/"16"--|
       A----------------------------------|
       E----------------------------------|


          " "-vibrato

       E--------------------------------------------------------|
       B--------------------------------------------------------|
       G--------------------------------------------------------|
       D--12/"14"--12-12/"14"--12-12/"16"---12/"14"--12/"14"\12-|
       A--------------------------------------------------------|
       E--------------------------------------------------------|


       CHORUS


       AND:     D  Bm  F#m  A  G  F#m  Em  D


                                END
Tap to rate this tab
# A B C D E F G H I J K L M N O P Q R S T U V W X Y Z