Song name
# A B C D E F G H I J K L M N O P Q R S T U V W X Y Z

The Kooks - Kids tab

Here the song: http://www.youtube.com/watch?v=P8znYPXhZFA

Intro: 0:08

Outro: 2:06

-----------------------------------------------------------------------------

Chords:

   F#m  D   A   E
e|--2---2---5---4---|
H|--2---3---5---5---|
G|--2---2---6---4---|
D|--4---0---7---6---|
A|--4-------7---7---|
E|--2-------5---4---|



Intro:

e|------------0--2--4-2--0--------5--7--9----9--7--10--9--7/4--5--|
H|------0--2----------------------5-------------------------------|
G|---2----------------------------6-------------------------------|
D|--------------------------------7-------------------------------|
A|----------------------------------------------------------------|
E|----------------------------------------------------------------|

e|-------------------------5-----5--------------------------------|
H|--5-5/7---9--7--5----------6-------------5-5-5-5----------------|
G|-----------------------------6-----------6-6-6-6---4--4--2------|
D|----------------------------------------------------------------|
A|----------------------------------------------------------------|
E|----------------------------------------------------------------|



Outro:

e|---------------------5-7-9-7-5----5-9-10-9-7/4-5---7-4-5--------|
H|---0-----------------5------------------------------------------|
G|-2-------------------6------------------------------------------|
D|-----4----7-7-7-5----7------------------------------------------|
A|----------------------------------------------------------------|
E|----------------------------------------------------------------|

e|-9--9--9--9--9--9--10-9--12-12---------------5-5-5-5-5-5-4-2----|
H|-10-10-10-10-10-10-10-10-10-10------5-5-5----5-5-5-5-5-5-5-2----|
G|-9--9--9--9--9--9--9--9--9--9-------------2--6-6-6-6-6-6-4-2----|
D|---------------------------------------------7-7-7-7-7-7-6-4----|
A|---------------------------------------------7-7-7-7-7-7-7-4----|
E|---------------------------------------------5-5-5-5-5-5-4-2----|

have fun with it! :)

Tap to rate this tab
 
# A B C D E F G H I J K L M N O P Q R S T U V W X Y Z