Song name
# A B C D E F G H I J K L M N O P Q R S T U V W X Y Z

The Kooks - Do You Wanna tab

The Kooks - Do You Wanna

tabbed by: Flex24

Rhythm Guitar (Luke Pritchart)
------------------------------


Intro:
e|-------------------|-------------------------5---7------|
B|-------------------|--------------------------5---8-----|
G|-------------------|.-020202b302020--757575----5---9---.|
D|-------------------|.-020202b302020--757575------------.|
A|------12/1\12------|------------------------------------|
E|--5-5---------5-5--|------------------------------------| x4


Verse 1:

Just mess around with that:

e|--0-0-----0--1-1----1-1--|
B|--1--1---1---3--3---1-1--|
G|--2---2------2------2-2--|
D|--2-----------------3-3--|
A|--0-----------------3-3-|
E|--------------------1-1--|  x3


Chorus:
e|------------------------7777--|
B|-----------------~------8888--|
G|--020202b302020-757575--9999--|
D|--020202b302020-757575--9999--|
A|------------------------7777--|
E|------------------------7777--| x2


Intro

Verse2: (same as Verse 1)

Chorus

Intro

Verse3:( there luke plays nothing)

Chorus

Intro x4

Lead Guitar (Hugh Harris)
-------------------------

Intro:

e|------------------|-----------------------------------------------------|
B|----10b~----------|--10b~-10p8----------10b~-------10b~-------10b~------|
G|------------------|------------7-9h----------9-9~~-----9-9~~--------9~~-|
D|------------------|-----------------------------------------------------|
A|------------------|-----------------------------------------------------|
E|------------------|-----------------------------------------------------|

e|-------------|
B|--10b~-------|
G|--------9~~--|
D|-------------|
A|-------------|
E|-------------|

Verse1:

e|------------------------------|
B|------------------------------|
G|------------------------------|
D|------------------------------|
A|------------------------------|
E|--5-----------5\1--1-1/10-10--|

Chorus:
e|-------------------------5--7-----|
B|--------------------------5--8----|
G|--020202b302020--757575----5--9---|
D|--020202b302020--757575-----------|
A|----------------------------------|
E|----------------------------------| x2

Then
e|--------------------------------------|
B|--------------------------------------|
G|--987-5-987-5-987-987-5-987-5-987-----|
D|--987-5-987-5-987-987-5-987-5-987-7---|
A|----------------------------------7---|
E|--------------------------------------|

Verse2:
(same as verse 1)

Chorus

Verse3:
e|---------------------------------------------------------|
B|---------------------------------------------------------|
G|------------------------9-----9--------------------------|
D|---------------------------------------------------------|
A|---------------------00---000--0-------------------------|
E|--5-----------5\1----------------|:-5\1--10-:|-x5--------|


Chorus

then
e|--------------------------------------|
B|--------------------------------------|
G|--987-5-987-5-987-987-5-987-5-987-----|
D|--987-5-987-5-987-987-5-987-5-987-7---|
A|----------------------------------7---|
E|--------------------------------------| x6

------------------------------------------
b~...bend half notes up and down
~~...just bend a little bit
/... slide up
\... slide down
Tap to rate this tab
 
# A B C D E F G H I J K L M N O P Q R S T U V W X Y Z