Song name
# A B C D E F G H I J K L M N O P Q R S T U V W X Y Z

The Kooks - Rainbow chords

Highlighted       Show chord diagrams
The tab isnt complete, but have fun

Figure out the different rhythms out of the video on youtube

Capo 4th fret

Intro A, Em

4x A, Em

D                    C          A
Love is like a rainbow in your eyes

D                    C          A
Love is like a rainbow in your eyes


A solo: you strum the last two strings, the EADG were not strummed

E|-----4--4--4--4---4--4--4--4--4--|
B|-----6--7--9--11--9--7--6--7--0--|
G|---------------------------------|
D|---------------------------------|
A|---------------------------------|
E|---------------------------------|


4x A, Em

D                    C          A
Love is like a rainbow in your eyes

D                    C          A
Love is like a rainbow in your eyes

F     C           G              D
Ohhhh I miss your eyes miss your face

F     C           G              D
....................see in your faaaace


A solo: you strum the last two strings, the EADG were not strummed

Four times

E|-----4--4--4--4---4--4--4--4--4--|
B|-----6--7--9--11--9--7--6--7--0--|
G|---------------------------------|
D|---------------------------------|
A|---------------------------------|
E|---------------------------------|

.....
Tap to rate this tab
# A B C D E F G H I J K L M N O P Q R S T U V W X Y Z