The Kooks - Eddies Gun chords

Highlighted       Show chord diagrams
the kooks eddies gun, the sort of live version.

standard tuning : ebgdae


    A   Bm  C#m  F#  E   D
e---5---7----4---9---12--5--------------------------------------|
b---5---7----5---10--12--7--------------------------------------|
g---6---7----6---11--13--7--------------------------------------|
d---7---9----6---11--14--7--------------------------------------|
a---7---9----4---9---14--5--------------------------------------|
e---5---7----4---9---12--5--------------------------------------|

Verse 1:
A                Bm        C#m       A Bm A Bm
Did you see the way she looked at me? 
A                Bm        C#m       A Bm A Bm
Honey bee got two lies and she's got me 

Chorus:
F#         E         Bm
I tried to love her back 
           F#          E       Bm
And then I shrunk back into my wrap 
           D
And in the barrel of my gun 
  C#m              Bm      A Bm A Bm
I hope I'm not the only one 

Verse 2:
A             Bm       C#m       A Bm A Bm
Yes I see the way she looked at me 
   A                      Bm      C#m       A Bm A Bm
Oh shes got an eye for an awkward guy like me 

Chorus:
F#         E         Bm
I tried to love her back (she's just a girl) 
           F#          E       Bm
And then I shrunk back into my wrap (she's just a girl) 
           D
And in the barrel of my gun 
  C#m              Bm      A Bm A Bm
I hope I'm not the only one  
           D
And in the barrel of my gun 
  C#m              Bm      AAAAAAAAAAAAAAAAAAAAAAAAAAAAAAAA
I hope I'm not the only one 

Solo:

e-7-7-7-5--------------------------------------2-2/9--12--|
b---------7-5-------------14-14-14-14-12-10-9--3-2/10-12--|
g-------------7-6-4-6-------------------------------------|
d---------------------7-4---------------------------------|
a---------------------------------------------------------|
e---------------------------------------------------------|

Chorus:
F#         E         Bm
I tried to love her back (she's just a girl) 
           F#          E       Bm
And then I shrunk back into my wrap (she's just a girl) 
           D
And in the barrel of my gun 
  C#m              Bm      A Bm A Bm
I hope I'm not the only one  
           D
And in the barrel of my gun 
  C#m              Bm      A
I hope I'm not the only one  

Tap to rate this tab
 
# A B C D E F G H I J K L M N O P Q R S T U V W X Y Z