Song name
# A B C D E F G H I J K L M N O P Q R S T U V W X Y Z

The Kooks - She Moves In Her Own Way tab

I think it's 99,9% right.
Enjoy!!
E|------------------------------------------------------------|----------------|
B|----------------------8--10b-10r-8-10-----------------------|----------------|
G|--------------7---7-9-----------------7---12-12b-12r-10-12-8|----------------|
D|--------5-7s9---9-------------------------------------------|----------------|
A|--7-5-7-----------------------------------------------------|----------------|
E|------------------------------------------------------------|----------------|

E|-----------------------17b-17r-15-17------------------|----------------------|
B|--------------------15---------------17-15-13-12-10-12|----------------------|
G|-----------12-14s16------------------17-16-14-12-11-12|----------------------|
D|--14-12-14--------------------------------------------|----------------------|
A|------------------------------------------------------|----------------------|
E|------------------------------------------------------|----------------------|
Tap to rate this tab
 
# A B C D E F G H I J K L M N O P Q R S T U V W X Y Z