Song name
# A B C D E F G H I J K L M N O P Q R S T U V W X Y Z

The Kooks - Down To The Market tab

Artist:  The Kooks
Song: Down To The Market
Album: Konk
Tabbed by: gustavoaraujo999@hotmail.com

[Intro]
e|-------------2-2--------------------------|
B|-----------------2-2-----------3-3--------|
G|-4--2-4--4-4-----------------------2-2----|
D|---------------------5--4-5-5-5-----------|
A|------------------------------------------|
E|------------------------------------------|

e|-------------2-2--------------------------|
B|-----------------2-2-----------3-3--------|
G|-4--2-4--4-4-----------------------2-2-4~-|
D|---------------------5--4-5-5-5-----------|
A|------------------------------------------|
E|------------------------------------------|

or

e|------------------------------------------------|
B|-------------7-7--------------------------------|
G|-----------------6-6-----------------7-7--------|
D|-9--7-9--9-9-----------------------------7-7----|
A|----------------------10--9-10-10-10------------|
E|------------------------------------------------|


e|------------------------------------------------|
B|-------------7-7--------------------------------|
G|-----------------6-6-----------------7-7--------|
D|-9--7-9--9-9-----------------------------7-7-9~-|
A|----------------------10--9-10-10-10------------|
E|------------------------------------------------|

enjoy!
Tap to rate this tab
 
# A B C D E F G H I J K L M N O P Q R S T U V W X Y Z