The Kooks - When She Was Mine chords

Highlighted       Show chord diagrams
This is my first tab. Im not sure about the B part. Hope you like it

Band: The Kooks
Song: When she was mine
Tuning: Standard (EADGBE)

Main riff:

   Em             
|----------------------------|
|----------------------------|
|---------4--4-----------4--4| 4x
|--2---2--2--2----2-2--2-2--2|
|--2---2--2--2----2-2--2-2--2|
|--0---0--0--0----0-0--0-0--0|

   C
|--0---0--0--0----0-0--0-0--0|
|--1---1--1--1----1-1--1-1--1|
|--0---0--4--4----0-0--0-4--4|
|--2---2--2--2----2-2--2-2--2|
|--3---3--3--3----3-3--3-3--3|
|----------------------------|

   A
|----------------------------|
|----------------------------|
|----------------------------|
|--7---7--9--9----7-7--7-9--9|
|--7---7--7--7----7-7--7-7--7|
|--5---5--5--5----5-5--5-5--5|


Verse

           Em     D Em
I want you back

                  Em    D Em
Cause, I need you back

           Em             D Em
I miss you my lover babe

               Em    D Em
And i need you here



B part

             Am  
I found your love

          Am
to be the key
       
         Am           Am 
so wont you come and unlock me


Main riff (only the Em part)
Verse


Chorus

C            A
When she was mine

        C              A
I was a different kind guy

        C                           A
I would spend time with her and her mother


          C          A
You might say that i loved her


when she was mine
Tap to rate this tab
 
# A B C D E F G H I J K L M N O P Q R S T U V W X Y Z