The Kooks - Kids chords

Highlighted       Show chord diagrams
                     
       ###############  The Kooks  #####################
        #################  Kids  #####################
         ################ By Zicco ##################

 Standard tuning
 capo on 2. fret
 Chords: Em:  022000
         C:   032010
         G/F: 355433
         C/F: 254232

 Simple intro:
 |-----------0-2/0-------------------|
 |---------3-------3-0---------------|
 |---0-2-4-----------------2-0-------|
 |-----------------------------4-220-|
 |-----------------------------------|
 |-----------------------------------|

 |-----------0-2/0---------------------0---|
 |---------3-------3-0-----------------0---|
 |---0-2-4-----------------2-0---------0---|
 |-----------------------------4-220---2---|
 |-------------------------------------2---|
 |-------------------------------------0---|

Em         C 
 You were a child
                 G/F              C/F
Crawling on your knees toward him
Em                C
  Making mamma so proud
G/F                    C/F     
 But your voice is too loud
Em                 C           
  We like to watch you laughing
G/F                 C/F 
 Picking insects of plants
Em          C              G/F      C/F
  No time to think of consequences

.... This goes throughout the song....

Tap to rate this tab
 
# A B C D E F G H I J K L M N O P Q R S T U V W X Y Z