Song name
# A B C D E F G H I J K L M N O P Q R S T U V W X Y Z

The Kooks - You Dont Love Me tab

You Don't Love Me - The Kooks
2006
Inside In Inside Out


Verse 1
e|-5------5-----3--|
B|-5------6-----3--|
G|-5-x8---5-x7--4--|
D|-7------7-----5--|
A|-7------5-----5--|
E|-5------x-----3--|
   Am    Dm7    G

After playing the chord Dm7 for the 7th time, you quickly change to G.

Chorus (figure out strumming, it's not that hard)
e|-0---3---2---3---0--|
B|-1---3---3---3---0--|
G|-0---4---4---4---1--|
D|-2---5---4---5---2--|
A|-3---5---2---5---2--|
E|-x---3---x---3---0--|
   C   G  Bm   G   E

Verse 2 (same strumming as Verse 1)
e|-7------7-----5--|
B|-7------8-----5--|
G|-7-x8---7-x7--6--|
D|-9------9-----7--|
A|-9------7-----7--|
E|-7------x-----5--|
   Bm    Em7    A

Bridge
Part1
e|-2----0---0--0--0-|
B|-3----0---2--3--2-|
G|-4----0---2--2--2-|
D|-4----2---2--2--2-|
A|-2----2---0--0--0-|
E|-x----0---x--x--x-| 
   Bm  Em   A

Part 2
e|-7777-7----------|
B|-7777-7----------|
G|-7777-7 let ring-|
D|-9999-9----------|
A|-9999-9----------|
E|-7777-7----------|
  Bm

Solo
e|--------------------------------------------------------------------------|
B|14-13-12-11-10-9-7-5-7b9-b9-r7-5-7b9-5----------------------2h4b6-b6-r4-2/|
G|---------------------------------------7-6-5-4-3-2-1---0h1-2--------------|
D|-----------------------------------------------------2--------------------|
A|--------------------------------------------------------------------------|
E|--------------------------------------------------------------------------|

Outro
Part 1
e|-7------7-----5--|
B|-7------8-----5--|
G|-7-x8---7-x7--6--|
D|-9------9-----7--|
A|-9------7-----7--|
E|-7------x-----5--|
   Bm    Em7    A

Part 2
e|-------------|
B|-------------|
G|--4----------|
D|--4-let ring-|x2
A|--6----------|
E|-------------|
   C#5

Part 3
e|------------|
B|------------|
G|-4--4---4---|
D|-4--4---4---|
A|-6--2---6---|
E|------------|
  C#5 B5 C#5

Verse 1       x4
Chorus        x1
Verse 2       x4
Bridge Part 1 x2
Bridge Part 2 x1
Verse 2       x4
Chorus        x1
Solo          x1
Outro Part 1  x2
Outro Part 2  x2
Outro Part 3  x1

That's it.
Tap to rate this tab
 
# A B C D E F G H I J K L M N O P Q R S T U V W X Y Z